Oops, an error
Loading. Please wait.

Otra Vez tab

5 views 1 this week
no commentswrite comment
1 2 3 4 5
3 more votes to show rating
add to favorites
×
Save as Personal and add changes to this tab that will be seen only by you. Learn more ›
×
You can save this tab as Personal to edit and correct it or add notes. All changes will be seen only by you. Learn more »
launch autoscroll
font size
0
reset
how to read this tab
guitar tuner
edit
Autoscroll
slow
fast
+/-
esc
set tempo
stop
 INTRO

part 1
e--------------------        -------------------
B---------12---------        -------------------
G--9-11-9----9-11-9--  (x7)  -9-11-9-13-11-11-9- (x1)
D--------------------        -------------------
A--------------------        -------------------
E--------------------        -------------------

part 2
e--------------------        -------------------
B---------12---------        ---------------12--
G--9-11-9----9-11-9--  (x7)  -9-11-11/13-11----- (x1)
D--------------------        -------------------
A--------------------        -------------------
E--------------------        -------------------

  Guitarra 2 (intro)

e--------------------------------------------------------
B--------------------------------------------------------
G--9/11-9-11-11/13----9/11-9-8-------9/11-9-11-11/13---9-
D--------------------------------------------------------
A--------------------------------------------------------
E--------------------------------------------------------

e------------------------------------------------------------------
B---------------------------------------------------------------12-
G--9/11-9-11-11/13---9/11-9-8---9/11-9-11-11/13---9-11-11/13-11----
D------------------------------------------------------------------
A------------------------------------------------------------------
E------------------------------------------------------------------


E5
Dejo en mis labios su olor
B5
en mi sonrisa un caracol
C#5
por cada esquina su nombre
A5                     B5-C#5-B5
tatuado en un rincon.

E5
mañana no sera lo que puede ser hoy
B5
me guardo en mi bolsillo un puñado de ilusion
C#5                         A5   B5-C#5-B5
que nada devuelve este corazon.

C#5
   me miras
B5
   te acercas
A5
   me vuelvo a perder en tus labios
C#5           B5      A5
porque que al despertar ya no te vea mas

E5
otra vez
B5
vuelvo a caer
C#5
vuelvo a sentir
A5
como haces que arda  mi piel
E5                B5
otra historia que mañana contare
C#5
todos los recuerdos las promesas sin cumplir
A5
tu recuerdo ya el tiempo se lo llevo.


     (volver al intro pate 2)

E5
solo tu me haces sentir
B5
que en esta vida no hay un plan
C#5
que cada dia nunca vuelve a
A5
ser igual que ayer.

E5
mañana no sera lo que puede ser hoy
B5
me guardo en mi bolsillo un puñado de ilusion
C#5                         A5   B5-C#5-B5
que nada devuelve este corazon.

C#5
   me miras
B5
   te acercas
A5
  me vuelvo a perder en tus labios
C#5           B5         A5
 porque que al despertar ya no te vea mas

B5
otra vez
B5
vuelvo a caer
C#5
vuelvo a sentir
A5
como haces que arda mi piel
E5                B5
otra historia que mañana contare
C#5
todos los recuerdos las promesas sin cumplir
A5
tu recuerdo ya el tiempo se lo llevo

 INTRO GUITARRA 1 (SOLAMENTE PARTE X7) (DISTORCION SUAVE)

otra vez ...
         E5  E5
vuelvo a ...

E5
otra vez
B5
vuelvo a caer
C#5
vuelvo a sentir
A5
como haces  que arda mi piel
E5                B5
otra historia que mañana contare
C#5
todos los recuerdos las promesas sin cumplir
A5
tu recuerdo ya el tiempo se lo llevo
E5
otra vez
B5
vuelvo a caer
C#5
vuelvo a sentir
A5
como haces  que arda   mi piel
E5                B5
otra historia que mañana contare
C#5
todos los recuerdos las promesas sin cumplir
A5
tu recuerdo ya el tiempo se lo llevo


     (intro completo)


DEDICADA PARA KARLA.......

            
            
Suggest correction
Creating personal tab
Creating personal tab
You can edit any tab online and save it as your Personal.

You can edit, replace or remove any tab part or add personal notes – all changes will be seen only by you.

Personal tabs can be accessed anytime from any device, even offline.
Learn more »
Give kudos to tab author, rate the tab!
1 2 3 4 5
comments
print report bad tab
guest
Wanna post a correction for this tab? Suggest correction