Oops, an error
Loading. Please wait.

Chop Em Down tab

version 3
version 3

Whole song

1,906 views 6 this week
1 commentread comment
1 2 3 4 5
1 last vote to show rating
add to favorites
×
Save as Personal and add changes to this tab that will be seen only by you. Learn more ›
×
You can save this tab as Personal to edit and correct it or add notes. All changes will be seen only by you. Learn more »
launch autoscroll
font size
0
reset
how to read this tab
guitar tuner
edit
Autoscroll
slow
fast
+/-
esc
set tempo
stop
Author
Difficulty
Artist- Matisyahu
Song- Chop 'Em Down
Album- Live at Stubb's

This is the CORRECT tab for this song

In this song, the guitarist does a lot of skanking. they are just upstrokes

Intro
e|-------------------------------|
b|-------------------------------|
g|-------------------------------|
d|-----2--0-2------------2-0-2-5-|
a|-0-3--------2-----0-3----------|
e|-------------------------------|

Upstrokes
e|-5-5-5-5-5-7-7-7-7-7-----------|
b|-5-5-5-5-5-7-7-7-7-7-----------|
g|-5-5-5-5-5-7-7-7-7-7-----------|
d|-------------------------------|
a|-------------------------------|
e|-------------------------------| x4


e|-5-5---5-5---5-5---5-5---7-7---7-7---7-7---7-7--|
b|-5-5---5-5---5-5---5-5---7-7---7-7---7-7---7-7--|
g|-5-5---5-5---5-5---5-5---7-7---7-7---7-7---7-7--|
d|------------------------------------------------|
a|------------------------------------------------|
e|------------------------------------------------| 


e|-5-5---5-5---5-5---5-5---7-7---7-7---7-7---7~--|
b|-5-5---5-5---5-5---5-5---7-7---7-7---7-7---7~--|
g|-5-5---5-5---5-5---5-5---7-7---7-7---7-7---7~--|
d|-----------------------------------------------|
a|-----------------------------------------------|
e|-----------------------------------------------|


e|-5-5---5-5---5-5---5-5---7-7---7-7---7-7---7-7--|
b|-5-5---5-5---5-5---5-5---7-7---7-7---7-7---7-7--|
g|-5-5---5-5---5-5---5-5---7-7---7-7---7-7---7-7--|
d|------------------------------------------------|
a|------------------------------------------------|
e|------------------------------------------------| 


e|-55555555---|-------5~---|
b|-55555555---|-----5------|
g|-55555555---|---5--------|
d|------------|-5----------|
a|------------|------------|
e|------------|------------|


Upstrokes
e|-5-5-5-5-5-7-7-7-7-7-----------|
b|-5-5-5-5-5-7-7-7-7-7-----------|
g|-5-5-5-5-5-7-7-7-7-7-----------|
d|-------------------------------|
a|-------------------------------|
e|-------------------------------| x3


e|-5-5---5-5---5-5---5-5---7-7---7-7---7-7---7-7--|
b|-5-5---5-5---5-5---5-5---7-7---7-7---7-7---7-7--|
g|-5-5---5-5---5-5---5-5---7-7---7-7---7-7---7-7--|
d|------------------------------------------------|
a|------------------------------------------------|
e|------------------------------------------------| 


e|-5-5---5-5---5-5---5-5---7-7---7-7---7-7---7~--|
b|-5-5---5-5---5-5---5-5---7-7---7-7---7-7---7~--|
g|-5-5---5-5---5-5---5-5---7-7---7-7---7-7---7~--|
d|-----------------------------------------------|
a|-----------------------------------------------|
e|-----------------------------------------------|


e|-5-5---5-5---5-5---5-5---7-7---7-7---7-7---7-7--|
b|-5-5---5-5---5-5---5-5---7-7---7-7---7-7---7-7--|
g|-5-5---5-5---5-5---5-5---7-7---7-7---7-7---7-7--|
d|------------------------------------------------|
a|------------------------------------------------|
e|------------------------------------------------| 


e|-55555555---|-------5~---|
b|-55555555---|-----5------|
g|-55555555---|---5--------|
d|------------|-5----------|
a|------------|------------|
e|------------|------------|


Upstrokes
e|-5-5-5-5-5-7-7-7-7-7-----------|
b|-5-5-5-5-5-7-7-7-7-7-----------|
g|-5-5-5-5-5-7-7-7-7-7-----------|
d|-------------------------------|
a|-------------------------------|
e|-------------------------------| x4


e|-5-5---5-5---5-5---5-5---7-7---7-7---7-7---7-7--|
b|-5-5---5-5---5-5---5-5---7-7---7-7---7-7---7-7--|
g|-5-5---5-5---5-5---5-5---7-7---7-7---7-7---7-7--|
d|------------------------------------------------|
a|------------------------------------------------|
e|------------------------------------------------| 


e|-5-5---5-5---5-5---5-5---7-7---7-7---7-7---7~--|
b|-5-5---5-5---5-5---5-5---7-7---7-7---7-7---7~--|
g|-5-5---5-5---5-5---5-5---7-7---7-7---7-7---7~--|
d|-----------------------------------------------|
a|-----------------------------------------------|
e|-----------------------------------------------|


e|-5-5---5-5---5-5---5-5---7-7---7-7---7-7---7-7--|
b|-5-5---5-5---5-5---5-5---7-7---7-7---7-7---7-7--|
g|-5-5---5-5---5-5---5-5---7-7---7-7---7-7---7-7--|
d|------------------------------------------------|
a|------------------------------------------------|
e|------------------------------------------------| 


e|-55555555---|-------5~---|
b|-55555555---|-----5------|
g|-55555555---|---5--------|
d|------------|-5----------|
a|------------|------------|
e|------------|------------|


Upstrokes
e|-5-5-5-5-5-7-7-7-7-7-----------|
b|-5-5-5-5-5-7-7-7-7-7-----------|
g|-5-5-5-5-5-7-7-7-7-7-----------|
d|-------------------------------|
a|-------------------------------|
e|-------------------------------| x4


e|-5-5---5-5---5-5---5-5---7-7---7-7---7-7---7-7--|
b|-5-5---5-5---5-5---5-5---7-7---7-7---7-7---7-7--|
g|-5-5---5-5---5-5---5-5---7-7---7-7---7-7---7-7--|
d|------------------------------------------------|
a|------------------------------------------------|
e|------------------------------------------------| 


e|-5-5---5-5---5-5---5-5---7-7---7-7---7-7---7~--|
b|-5-5---5-5---5-5---5-5---7-7---7-7---7-7---7~--|
g|-5-5---5-5---5-5---5-5---7-7---7-7---7-7---7~--|
d|-----------------------------------------------|
a|-----------------------------------------------|
e|-----------------------------------------------|


e|-5-5---5-5---5-5---5-5---7-7---7-7---7-7---7-7--|
b|-5-5---5-5---5-5---5-5---7-7---7-7---7-7---7-7--|
g|-5-5---5-5---5-5---5-5---7-7---7-7---7-7---7-7--|
d|------------------------------------------------|
a|------------------------------------------------|
e|------------------------------------------------| 


e|-55555555---|-------5~---|
b|-55555555---|-----5------|
g|-55555555---|---5--------|
d|------------|-5----------|
a|------------|------------|
e|------------|------------|


This part is played with a Wah-Wah pedal. Figure out timing and strumming
e|-5-5---5-5---5-5---5-5---7-7---7-7---7-7---7-7--|
b|-5-5---5-5---5-5---5-5---7-7---7-7---7-7---7-7--|
g|-5-5---5-5---5-5---5-5---7-7---7-7---7-7---7-7--|
d|------------------------------------------------|
a|------------------------------------------------|
e|------------------------------------------------| 


e|-5-5---5-5---5-5---5-5---7-7---7-7---7-7---7~--|
b|-5-5---5-5---5-5---5-5---7-7---7-7---7-7---7~--|
g|-5-5---5-5---5-5---5-5---7-7---7-7---7-7---7~--|
d|-----------------------------------------------|
a|-----------------------------------------------|
e|-----------------------------------------------|


e|-5-5---5-5---5-5---5-5---7-7---7-7---7-7---7-7--|
b|-5-5---5-5---5-5---5-5---7-7---7-7---7-7---7-7--|
g|-5-5---5-5---5-5---5-5---7-7---7-7---7-7---7-7--|
d|------------------------------------------------|
a|------------------------------------------------|
e|------------------------------------------------| 

End on this swith a Flanger effect
e|----5~----|
b|----5~----|
g|----5~----|
d|----------|
a|----------|
e|----------|


Enjoy!!!!!!!

            
            
Suggest correction
Creating personal tab
Creating personal tab
You can edit any tab online and save it as your Personal.

You can edit, replace or remove any tab part or add personal notes – all changes will be seen only by you.

Personal tabs can be accessed anytime from any device, even offline.
Learn more »
Give kudos to tab author, rate the tab!
1 2 3 4 5
comments
print report bad tab
1 comment total.
-1 reply
TheBigB86 10 Apr 13, 2008 03:18 AM

It's NOT the correct tab.

THIS is correct

Verse
e|--5-5-5-5--7-7-7-7--|
B|--5-5-5-5--8-8-8-8--|
G|--5-5-5-5--9-9-9-9--|
D|--------------------|
A|--------------------|
E|--------------------|

Chorus
^ v v ^ ^ v v ^ ^ v v ^ ^ v v ^
e|--5-5-5-5--5-5-5-5-|-7-7-7-7--7-7-7-7--|
B|--6-6-6-6--6-6-6-6-|-8-8-8-8--8-8-8-8--|
G|--7-7-7-7--7-7-7-7-|-9-9-9-9--9-9-9-9--|
D|-------------------|-------------------|
A|-------------------|-------------------|
E|-------------------|-------------------|

^ v v ^ ^ v v ^ ^ v v ^ ^ v v ^
e|--5-5-5-5--5-5-5-5-|-7-7-7-7--7-7-7\6--|
B|--6-6-6-6--6-6-6-6-|-8-8-8-8--8-8-8\7--|
G|--7-7-7-7--7-7-7-7-|-9-9-9-9--9-9-9\8--|
D|-------------------|-------------------|
A|-------------------|-------------------|
E|-------------------|-------------------|

guest
You may want to rate the tab now too:
select rating
Wanna post a correction for this tab? Suggest correction