Oops, an error
Loading. Please wait.

King Without A Crown bass

version 2
version 2

Whole song

Interactive

13,073 views 9 this week
1 commentread comment
1 2 3 4 5
x 6
add to favorites
×
Save as Personal and add changes to this tab that will be seen only by you. Learn more ›
×
You can save this tab as Personal to edit and correct it or add notes. All changes will be seen only by you. Learn more »
launch autoscroll
font size
0
reset
guitar tuner
edit
Autoscroll
slow
fast
+/-
esc
set tempo
stop
Intro:

G-----------------|
D-3-1-------1-----|
A-----1-3-----1-3-|
E---------1-------|

Verse: (Listen Closely and listen to where it stops to go to the chorus)

G-----------------------------------------------|
D-----------------------------------------------|
A-----3-3-1--1-1-3------3----------3------------|
E-4-4---------------4-4---1-1-11-1---1-1-3------|

Chorus:

G--------------------------------------------------------------------------|
D-3-3-3-1-1-1-------------------1-1-1----------------------1-1-1-----------|
A-------------1-1-1-3-3-3-------------1-1-1-3-1------------------1-1-1-3---|
E-------------------------1-1-1-----------------44-3-1-1-1-----------------|

Guitar solo:

G-------------------|
D-3-1-3-1-3-1-3-----|
A-------------------|
E-------------------|

Bridge:
G-----------------------------------------------------|
D-------1-1-1------------3--3-1-1-1-------------------|
A-------------1--1-3-3-3------------1--1-3-3-3--------|
E-1--1------------------------------------------------|

Overall, its not tough if you listen close enough cause its quite funky.

            
            
Suggest correction
Creating personal tab
Creating personal tab
You can edit any tab online and save it as your Personal.

You can edit, replace or remove any tab part or add personal notes – all changes will be seen only by you.

Personal tabs can be accessed anytime from any device, even offline.
Learn more »
comments
print report bad tab
1 comment total.
0 reply
jacob_pereira 20 Jan 17, 2014 05:51 PM, edited on January 20 2014, 01:10 pm

edit sorry, nevermind this is a good tab, was listening to the live at stubbs which has a different bass during the solo

guest
Wanna post a correction for this tab? Suggest correction