Oops, an error
Loading. Please wait.

Lonely Boy tab

version 2
version 2

Whole song

47,232 views 105 this week
4 commentsread comments
1 2 3 4 5
x 30
add to favorites
×
Save as Personal and add changes to this tab that will be seen only by you. Learn more ›
×
You can save this tab as Personal to edit and correct it or add notes. All changes will be seen only by you. Learn more »
launch autoscroll
font size
0
reset
how to read this tab
guitar tuner
edit
Autoscroll
slow
fast
+/-
esc
set tempo
stop
-------------------------------------------------------------------------------
                             Lonely Boy - Matt Corby (Black Keys Cover)
-------------------------------------------------------------------------------

Tuning: Drop D, Capo on 4th

http://www.youtube.com/watch?v=rxRs5kvsqro 

Check out the link above for an incredible recording. The timing of the
lyrics here are  probably a bit off, but the video'll give you a better idea. 


[Introduction]

e|------------------|------------------|------------------|--------------------|
B|------------------|------------------|------------------|--------------------|
G|------------------|------------------|------------------|--------------------|
D|----0-----0-------|----0-----0-------|----0-----0-------|------0-----0-------|
A|------5-----5---5-|------5-----5---5-|------5-----5---5-|--------5-----5---5-|
D|--0-----0-----0---|--0-----0-----0---|--0-----0-----0---|--0h3-----3-----3---|

e|------------------|------------------|------------------|--------------------|
B|------------------|------------------|------------------|--------------------|
G|------------------|------------------|------------------|--------------------|
D|----0-----0-------|----0-----0-0---0-|----0-----0-------|------0-----0-------|
A|------5-----5---5-|------5---3-2---0-|------5-----5---5-|--------5-----5---5-|
D|--5-----5-----5---|--5-----5-----5---|--0-----0-----0---|--0h3-----3-----3---|

e|------------------|------------------||
B|------------------|------------------||
G|------------------|------------------||
D|----0-----0-----0-|------0-----0-----||
A|------5-----5-----|--5-----5-----5---||
D|--5-----5-----5---|----5-----5-----5-||


[Verse]

e|------------------|------------------|------------------|------------------|
B|------------------|------------------|------------------|------------------|
G|------------------|------------------|------------------|------------------|
D|----0-----0-------|----0-----0-------|----0-----0-------|------0---0-0---0-|
A|------5-----5---5-|------5-----5---5-|------5-----5---0-|--5-------3-2---0-|
D|--0-----0-----0---|--3-----3-----3---|--5-----5-----5---|----5---5-----5---|

 1. Well I'm so above you                 and it's fine to see
 2. Well your mama left you,              but your daddy 

e|------------------|------------------|------------------|------------------|
B|------------------|------------------|------------------|------------------|
G|------------------|------------------|------------------|------------------|
D|----0-----0-------|----0-----0-------|----0-----0-------|------0-----0-----|
A|------5-----5---5-|------5-----5---5-|------5-----5---0-|--5-----5-----5---|
D|--0-----0-----0---|--3-----3-----3---|--5-----5-----5---|----5-----5-----5-|
    
 1. But I came to love you                anyway
 2. Shoulda' done you                     just the same

e|------------------|------------------|------------------|------------------|
B|------------------|------------------|------------------|------------------|
G|------------------|------------------|------------------|------------------|
D|----0-----0-------|----0-----0-------|----0-----0-------|----0-----0-----0-|
A|------5-----5---5-|------5-----5---5-|------5-----5---0-|--3-----2-----0---|
D|--0-----0-----0---|--3-----3-----3---|--5-----5-----5---|------5-----5-----|

 1. But you tore my heart out             and I don't mine bleeding
 2. But I came to love you,               Am I going to bleed?

e|------------------|------------------|------------------|------------------||
B|------------------|------------------|------------------|------------------||
G|------------------|------------------|------------------|------------------||
D|----0-----0-------|----0-----0-------|----0-----0-------|------------------||
A|------5-----5---5-|------5-----5---5-|------5-----5---0-|--5---------------||
D|--0-----0-----0---|--3-----3-----3---|--5-----5-----5---|------------------||
        
 1. Any old time you keep me waiting.
 2. Any old time you keep me waiting.


[Chorus] (x2)

e|--------0----------|--------0----------|-------------------|-----------------|
B|------3----3-------|------3----3---3---|----3---3----3---3-|----3---3------0-|
G|----2--------2---2-|----2--------2---2-|------2--------2---|------2-------0--|
D|--0------------0---|--3------------3---|-------------------|-------------0---|
A|-------------------|-------------------|--3--------3-------|-----------------|
D|-------------------|-------------------|-------------------|--3--------5-----|

    Ohhh ohhoh ohh-                       I got a love that keeps me waiting
 
e|--------0----------|------------0-----|--------0----------|-----------------|
B|------3----3-------|--------3------3--|------3----3-------|----3---3------0-|
G|----2--------2---2-|----2-------------|----2--------2---2-|------2-------0--|
D|--0------------0---|--3---3---3---3---|-------------------|-------------0---|
A|-------------------|------------------|--3------------3---|-----------------|
D|-------------------|------------------|-------------------|--3--------5-----|
    
    Ohhh ohhoh ohh-                      I got a love that keeps me waiting
 
e|--------0----------|------------0-----|--------0----------|-----------------|
B|------3----3-------|--------3------3--|------3----3-------|----3---3------0-|
G|----2--------2---2-|----2-------------|----2--------2---2-|------2-------0--|
D|--0------------0---|--3---3---3---3---|-------------------|-------------0---|
A|-------------------|------------------|--3------------3---|-----------------|
D|-------------------|------------------|-------------------|--3--------5-----|

    I'm a lonely boy-                     I'm a lonely boy-

e|--------0----------|--------0----------|-------------------|-----------------|
B|------3----3-------|------3----3---3---|----3---3----3---3-|----3---3------0-|
G|----2--------2---2-|----2--------2---2-|------2--------2---|------2-------0--|
D|--0------------0---|--3------------3---|-------------------|-------------0---|
A|-------------------|-------------------|--3--------3-------|-----------------|
D|-------------------|-------------------|-------------------|--3--------5-----|

   Ohhh ohhoh ohh-                      I got a love that keeps me waiting

[Riff] (x2) (! sympbol indicates accented notes/main riff)

       !    !            !       !     !
e|------------------|--------------------------|--------------------------|
B|-----3----3-------|----3p1-------------------|--------------------------|
G|---2---2----2--2--|----------0h2---0h2~------|------0h2---0h2~----------|
D|--------------0---|---------------------0----|----0------------0--------|
A|------------------|--------------------------|-------------------0------|
D|--0---------------|--------0-----0-----------|--3-------3----------3/5--|

e|-------------------------||
B|-------------------------||
G|--2p0--------------------||
D|--------0h3----0---------||
A|-------------------0h3---||
D|------5------5---5-------||


[Introduction]

Verse 1
Chorus
Riff
Verse 2
Chorus
Riff
Riff lightly w/ chorus lyrics

            
            
Suggest correction
Creating personal tab
Creating personal tab
You can edit any tab online and save it as your Personal.

You can edit, replace or remove any tab part or add personal notes – all changes will be seen only by you.

Personal tabs can be accessed anytime from any device, even offline.
Learn more »
comments
print report bad tab
4 comments total. Showing first comments.
0 reply
fookea 10 Mar 15, 2014 09:04 PM, edited on March 17 2014, 11:02 am

The part were he says ooooooohhh is something like ( based on the video ) correct me if i'm wrong :-s0 0 0 3 5 0 0 3 0 0 0 3 0 0 0 3 0 0 0 02 2 2 2 40 0 0 0 0

later edit: Sorry this is mirrored so the chords are EADGBe from top to bottom not eADGBE

0 reply
fookea 10 Mar 17, 2014 07:12 AM

ok the last post ****ed up my formating so again... the part where he says ooooooohhhhh with no mirroring this time is :

e 0 0 0 0 0
B 3 3 3 3 5
G 2 0 0 0 0
D 0 3 0 0 0
A 0 0 3 0 0
D 0 0 0 3 5

for the picking : for example i first do D G B e and back again and then D G B e and back again then A G B e and back again etc. I sometimes mix them up so do whatever it sounds good to you !

+1 reply
myamoto70 10 Dec 27, 2014 06:19 AM

Clearly wrong. chorus wrong, so not complete for me, otherwise it's cool. Missing maybe the second part. there is a go tut on youtube from: http://www.youtube.com/watch?v=0EUzjuFoFqM&index=69&list=WL&spfreload=10

guest
Wanna post a correction for this tab? Suggest correction