Oops, an error
Loading. Please wait.

Daylight tab

version 4
version 4

Interactive

29,624 views 30 this week
1 commentread comment
1 2 3 4 5
x 10
add to favorites
×
Save as Personal and add changes to this tab that will be seen only by you. Learn more ›
×
You can save this tab as Personal to edit and correct it or add notes. All changes will be seen only by you. Learn more »
launch autoscroll
font size
0
reset
how to read this tab
guitar tuner
edit
Autoscroll
slow
fast
+/-
esc
set tempo
stop
Author
Difficulty
-------------------------------------------------------------------------------
                           Daylight-Matt & Kim
-------------------------------------------------------------------------------
Tabbed by:Lamec
Email:3guitars@mail.com

Tuning:standard  (i put a capo on the fifth fret to make it sound higher, but you don't 
to... it's how you think it sounds good)
          A                            E
e|-------------------------|-------------------0-----------------------------|
B|--2-----0--2--0----2--2--|--2----0--2--0--------2--------------------------|
G|-----2-----------2-------|-----2----------2--------------------------------|
D|-------------------------|-------------------------------------------------|
A|-------------------------|-------------------------------------------------|
E|-------------------------|-------------------------------------------------|
         F#                           E
e|-------------------------|-------------------------------------------------|
B|--2----0--2--0-----0-----|--2-----0--2--0-----0----------------------------|
G|-----2----------2-----2--|-----2-----------2-----2-------------------------|
D|-------------------------|-------------------------------------------------|
A|-------------------------|-------------------------------------------------|
E|-------------------------|-------------------------------------------------|

Chords for guitar are A, E, F#

            
            
Suggest correction
Creating personal tab
Creating personal tab
You can edit any tab online and save it as your Personal.

You can edit, replace or remove any tab part or add personal notes – all changes will be seen only by you.

Personal tabs can be accessed anytime from any device, even offline.
Learn more »
comments
print report bad tab
1 comment total.
0 reply
hannahsguitar 10 Jun 10, 2010 06:19 PM

capo 5, not no capo. it doesnt sound good without a capo, but there are different tabs where you move up the frets.

guest
You may want to rate the tab now too:
select rating
Wanna post a correction for this tab? Suggest correction