Oops, an error
Loading. Please wait.

Cocaine Cowgirl bass

version 2
version 2

Whole song

191 views 1 this week
1 commentread comment
1 2 3 4 5
2 more votes to show rating
add to favorites
×
Save as Personal and add changes to this tab that will be seen only by you. Learn more ›
×
You can save this tab as Personal to edit and correct it or add notes. All changes will be seen only by you. Learn more »
launch autoscroll
font size
0
reset
guitar tuner
edit
Autoscroll
slow
fast
+/-
esc
set tempo
stop
Author
Difficulty
Tabbed by : Jason Hennessy
Intro
 
G|------|---------|
D|------|---------|
A|------|---------|
E|-0~---|------3~-|
  
G|------------------------------------|
D|------------------------------------|
A|------------------------------------|
E|-0000000000000000-88888888-33333333-|

G|------------------------------------|
D|------------------------------------|
A|------------------------------------|
E|-0000000000000000-88888888-14141414-|

Verse
G|-------------------|
D|-------------------| 
A|-------------------|
E|-0~-------8~----3~-|

G|------------------------|
D|------------------------|
A|------------------------|
E|-0~-------8~---14141414-|

G|------------------------------------|
D|------------------------------------| x2
A|------------------------------------|
E|-0000000000000000-88888888-33333333-|

Interlude
G|------------------------------------|
D|------------------------------------|
A|------------------------------------|
E|-0000000000000000-88888888-33333333-|         
                                                
G|------------------------------------|         
D|------------------------------------|
A|------------------------------------|
E|-0000000000000000-88888888-14141414-|

Verse
G|-------------------|
D|-------------------| 
A|-------------------|
E|-0~-------8~----3~-|

G|------------------------|
D|------------------------|
A|------------------------|
E|-0~-------8~---14141414-|

Interlude
G|------------------------------------|
D|------------------------------------|
A|------------------------------------|
E|-0000000000000000-88888888-33333333-|         
                                                
G|------------------------------------|         
D|------------------------------------|
A|------------------------------------|
E|-0000000000000000-88888888-14141414-|

Chorus
G|------------------------------------|
D|------------------------------------| x4
A|------------------------------------|
E|-0000000000000000-88888888-33333333-|

Chorus
G|------------------------------------|
D|------------------------------------| x5
A|------------------------------------|
E|-0000000000000000-88888888-33333333-|

G|------------------------------------|         
D|------------------------------------|
A|------------------------------------|
E|-0000000000000000-88888888-14141414-|

Outro/Guitar Solo
G|------------------------------------|
D|------------------------------------| x8
A|------------------------------------|
E|-0000000000000000-88888888-33333333-|

            
            
Suggest correction
Creating personal tab
Creating personal tab
You can edit any tab online and save it as your Personal.

You can edit, replace or remove any tab part or add personal notes – all changes will be seen only by you.

Personal tabs can be accessed anytime from any device, even offline.
Learn more »
Give kudos to tab author, rate the tab!
1 2 3 4 5
comments
print report bad tab
1 comment total.
0 reply
Pale_Pilgrim 702 Feb 07, 2014 01:26 AM

Well, it's a pretty basic tab, but it's a pretty basic bassline, really. The notes are all there, just listen to the song and you'll pick out nuances and such. Also, in the sections marked as Interlude and Chorus, I much prefer to play an E note on the 7th fret of the A string rather than the open E string, it just fits better to my ear.

guest
You may want to rate the tab now too:
select rating
Wanna post a correction for this tab? Suggest correction