Oops, an error
Loading. Please wait.

Basement Parties tab

version 1
version 1

Whole song

592 views 1 this week
no commentswrite comment
1 2 3 4 5
2 more votes to show rating
add to favorites
×
Save as Personal and add changes to this tab that will be seen only by you. Learn more ›
×
You can save this tab as Personal to edit and correct it or add notes. All changes will be seen only by you. Learn more »
launch autoscroll
font size
0
reset
how to read this tab
guitar tuner
edit
Autoscroll
slow
fast
+/-
esc
set tempo
stop
Author
Artist: Matt Pond PA
Song: Basement Parties
Album: Last Night
Tabbed by: Don Tago
Email: recebedou@yahoo.com

Standard Tuning


Chords used:
   EADGBe
Am:002210
F: 133211
G: 320033


Intro tab:
   Am       F          Am         G          F
e|-0-0--0--------------0-0--0-0---3-3--3-3--------------|
B|-0-1--0--------------0-1--0-1---3-3--3-3--------------|
G|-2-2--2--------------2-2--2-2---0-0--0-0---2-2--2-2---|
D|-2-2--2---2-3--2-3---2-2--2-2---0-0--0-0---3-3--3-3---|
A|----------3-3--3-3--------------2-2--2-2---3-3--3-3---|
E|----------1-1--1-1--------------3-3--3-3---1-1--1-1---|


Verse 1 chords:
Am          F          Am                     G
   When you   wake up     on your face on the bedroom carpet
Am           F              Am          G
  Count back   all the ways    that you ended up there
Am                           F
  You can't remember someone else's story
Am                            G
  You can't remember that you dont feel sorry
Am        F         Am                              G
  Get up,   get out -- the lines are gone, with the green you're leaving


Chorus 1 chords:
Am  F              Am                    G
      I don't mind silence, I don't mind sitting
Am  F          Am                      G
      I can be quiet, I wish you could hear me


Interlude 1:
  Am                F               Am               G
e|------10-12-10---------10-12-10--------10-12-10-----------10-12-10-15-|
B|---13----------13---13--------------13----------13-----13-------------|
G|--------------------------------12-----------------12-----------------|
D|----------------------------------------------------------------------|
A|----------------------------------------------------------------------|
E|----------------------------------------------------------------------|


Verse 2: use verse 1 chords
You go back, you repeat, trace the veins that you don't want to see
With your hands, in your hair -- don't leave your fingers buried
Do you think that we could try forgetting
The places we've gone with the ceiling spinning
Slow down until we stop
We have to steal this night back


Chorus 2: use chorus 1 chords
I don't mind silence, I don't mind sitting
I can be quiet, I wish you could hear me


Interlude 2:

-play Intro tab 1x, then

  Am                F                 Am                   G
e|--------------12-15--------------12------------------12-15b--------12b-12----------|
B|--------13-15--------------13-15---------------13-15---------13-15---------| play--| 2x
G|--12-14--------------12-14----------12---12-14-------------------------------------|
D|-----------------------------------------------------------------------------------|
A|-----------------------------------------------------------------------------------|
E|-----------------------------------------------------------------------------------|


Verse 3: use verse 1 chords
I'm tired of going to these basement parties
Everybody wants to leave their body
I'm hiding in the bathroom with no witness
Speaking through the door about some sickness


Chorus 2: use chorus 1 chords
I don't mind silence, I don't mind sitting
I can be quiet, I wish you could hear me
I don't mind silence, I don't mind sitting
I'm keeping the quiet, I wish you could hear me

            
            
Suggest correction
Creating personal tab
Creating personal tab
You can edit any tab online and save it as your Personal.

You can edit, replace or remove any tab part or add personal notes – all changes will be seen only by you.

Personal tabs can be accessed anytime from any device, even offline.
Learn more »
Give kudos to tab author, rate the tab!
1 2 3 4 5
comments
print report bad tab
guest
You may want to rate the tab now too:
select rating
Wanna post a correction for this tab? Suggest correction