Oops, an error
Loading. Please wait.

10000 Reasons Bless The Lord tab

version 2
version 2

Whole song

  • This tab is Fingerstyle, it is meant to be sung along too.
3,245 views 63 this week
no commentswrite comment
1 2 3 4 5
x 5
add to favorites
×
Save as Personal and add changes to this tab that will be seen only by you. Learn more ›
×
You can save this tab as Personal to edit and correct it or add notes. All changes will be seen only by you. Learn more »
launch autoscroll
font size
0
reset
how to read this tab
guitar tuner
edit
Autoscroll
slow
fast
+/-
esc
set tempo
stop
Author
-------------------------------------------------------------------------------
                             10000 reasons - matt redman
-------------------------------------------------------------------------------
Tabbed by:
E-mail:
key of D
Tuning:E-A-D-G-B-e

e|---------------------------------------------------------------------------|
B|------------0---0-------------------------------------------------------0-0|
G|-------2----0---0--2----------------------------2-------------------2---0-0|
D|--4----4-----------4---4--2-4-2-0---------0-----0---4-0---2----4----4------|
A|--5--------------------5--4---4-2---2---2-----------5-0---4----5-----------|
E|---------------------------------------------------------------------------|

  bless the Lord oh my soul O    my soul worship His holy name sing like never

e|--------3--0--2-----------------------------------------------------------------|
B|--------3--2--3-----------------------------------------------------------------|
G|-2------0--2--4-----------------------------------------------------------------|
D|-4---4--0--2--0---0--0--2----4---2-0--0------------0---0----0----0------------0-|
A|-----5--2--0---------2--4----5---4----------------------------------2--0--4-----|
E|--------3----------------------------------------------3---------2--------0-----|

  before oh my soul I worship His holy name (verse) the sun comes up its a new day 
 
e|---------------------------------------------------------------------------|
B|---------------------------------------------------------------------------|
G|---------------------------------------------0-0----0----------------------|
D|-0--------0----0---0---0----0----2---4--4--0-------------4---2---0-2--0----|
A|-----2---------------------------0------2-----------2----5---------0-------|
E|-2-------------3-------2---------------------3-------------------2---------|

  dawning it's time to sing your song again whatever may pass and whatever 

e|---------------------------------------------------------------------------|
B|---------------------------------------------------------------------------|
G|---------------------------------------------------------------------------|
D|--2---4-2-0-----0---0--0--0--0-----0---2---4--2-----0----------------------|
A|------2------2-----------------------------0-------------------------------|
E|-------------2--3---3--3--2--2-----2----------------2----------------------|

  lies before me let me be singing when the evening comes

e|---------------------------------------------------------------------------|
B|-----------------0----0----------------------------------------------------|
G|-------------2---0----0--2----------------------------2------------------2-|
D|--------4----4-----------4---4--2-4-2-0-----------0---0---4-0---2----4---4-|
A|--------5--------------------5--4---4-2--2-----2----------5-0---4----5-----|
E|---------------------------------------------------------------------------|

chorus: bless the Lord oh my soul O    my soul worship His holy name sing like

e|--------------3--0---2-----------------------------------------------------|
B|0--0----------3--2---3-----------------------------------------------------|
G|0--0---2------0--2---4-----------------------------------------------------|
D|-------4--4---0--2---0--0--0--2----4---2-0---0-----------------------------|
A|----------5---2--0---------2--4----5---4-----------------------------------|
E|--------------3------------------------------------------------------------|
  never before oh my soul I worship His holy name (repeat verse)



************************************

| /   slide up
| \   slide down
| h   hammer-on
| p   pull-off
| ~   vibrato
| +   harmonic
| x   Mute note
| b   Bend
| pb  Pre-bend
| br  Bend release
| pbr Pre-bend release
| brb Bend release bend

************************************

            
            
Suggest correction
Creating personal tab
Creating personal tab
You can edit any tab online and save it as your Personal.

You can edit, replace or remove any tab part or add personal notes – all changes will be seen only by you.

Personal tabs can be accessed anytime from any device, even offline.
Learn more »
comments
print report bad tab
guest
You may want to rate the tab now too:
select rating
Wanna post a correction for this tab? Suggest correction