Oops, an error
Loading. Please wait.

Dancing Generation bass

version 2
version 2

Whole song

2,056 views 3 this week
no commentswrite comment
1 2 3 4 5
x 4
add to favorites
×
Save as Personal and add changes to this tab that will be seen only by you. Learn more ›
×
You can save this tab as Personal to edit and correct it or add notes. All changes will be seen only by you. Learn more »
launch autoscroll
font size
0
reset
guitar tuner
edit
Autoscroll
slow
fast
+/-
esc
set tempo
stop
Author
Difficulty
-------------------------------------------------------------------------------
                             DANCING GENERATION - Matt Redman - Facedown
-------------------------------------------------------------------------------
Tabbed by: Sam Thompson

This is a really fun song and there is lots of room for improvisation if you want.

Tuning: Standard

INTRO
Bass starts after 8 beats
0:03
G|-------------------------------------------|
D|-------------------3-------------------3---|
A|----5-3-5----5-3-5------2-0-2----2-0-2-----|
E|-------------------------------------------| x2

VERSE
0:16
G|-----------------------------------------------------------------|
D|-------------------3-------------------3---55---55---5-----3~----|
A|----5-3-5----5-3-5------2-0-2----2-0-2----------------5---5------|
E|-----------------------------------------------------------------|

G|---------------------------------------------------------------------------|
D|------------------------3------------------------3---55---55---5-----3~----|
A|----5-3-5--5-3-5--5-3-5------2-0-2--2-0-2--2-0-2----------------5---5------|
E|---------------------------------------------------------------------------|

PRECHORUS

Change notes in time with the chord changes

0:43
G|----------------------------|
D|----------------------------|
A|----------------------------|
E|----0~----2~----3~----5~----|

CHORUS
0:57
G|---------------------------------------------------------------------------|
D|---------------------------------------------------------------------------|
A|----5555555555555555-7777777777777777------------------5555555555555555----|
E|--------------------------------------3333333333333333---------------------| x2

G|---------------------------------------------------------------------------|
D|------------------------3------------------3~------------------------------|
A|----5-3-5--5-3-5--5-3-5------2-0-2--2-0-2-2--------------------------------|
E|---------------------------------------------------------------------------|

VERSE
1:32
G|---------------------------------------------------------------------------|
D|------------------------3------------------------3---55---55---5-----3~----|
A|----5-3-5--5-3-5--5-3-5------2-0-2--2-0-2--2-0-2----------------5---5------|
E|---------------------------------------------------------------------------| x2

PRECHORUS (1:59) 

CHORUS
2:13
G|---------------------------------------------------------------------------|
D|---------------------------------------------------------------------------|
A|----5555555555555555-7777777777777777------------------5555555555555555----|
E|--------------------------------------3333333333333333---------------------| x4

There's a break after the chorus where you can improvise for a bit

3:22
G|---------------------------------------------------------------------------|
D|------------------------3-----------------------3~-------------------------|
A|----5-3-5--5-3-5--5-3-5------2-0-2--2-0-2-2-0-2----------------------------|
E|---------------------------------------------------------------------------|

G|---------------------------------------------------------------------------|
D|------------------------3------------------3~------------------------------|
A|----5-3-5--5-3-5--5-3-5------2-0-2--2-0-2-2--------------------------------|
E|---------------------------------------------------------------------------|

PRECHORUS (3:35)

CHORUS to finish
3:49
G|---------------------------------------------------------------------------|
D|---------------------------------------------------------------------------|
A|----5555555555555555-----------------------------------5555555555555555----|
E|---------------------0000000000000000-3333333333333333---------------------| x4

END

I think that's it. An epic bass line for an epic song!!


| ~  vibrato
===============================================================================

            
            
Suggest correction
Creating personal tab
Creating personal tab
You can edit any tab online and save it as your Personal.

You can edit, replace or remove any tab part or add personal notes – all changes will be seen only by you.

Personal tabs can be accessed anytime from any device, even offline.
Learn more »
comments
print report bad tab
guest
You may want to rate the tab now too:
select rating
Wanna post a correction for this tab? Suggest correction