Oops, an error
Loading. Please wait.

Crash tab

version 1
version 1

Whole song

Interactive

5,604 views 6 this week
1 commentread comment
1 2 3 4 5
2 more votes to show rating
add to favorites
×
Save as Personal and add changes to this tab that will be seen only by you. Learn more ›
×
You can save this tab as Personal to edit and correct it or add notes. All changes will be seen only by you. Learn more »
launch autoscroll
font size
0
reset
how to read this tab
guitar tuner
edit
Autoscroll
slow
fast
+/-
esc
set tempo
stop
Author
Difficulty
----------------------------------------------------------------------------
                             Crash - Matt Wills
----------------------------------------------------------------------------

Tuning: Standard

e|-----2-----2---2------4-----4---4----------------------------------------|
B|-0-0---0-0---0----0-0---0-0---0------------------------------------------|
G|-------------------------------------------------------------------------|
D|-------------------------------------------------------------------------|
A|-------------------------------------------------------------------------|
E|-------------------------------------------------------------------------|


            B5       C#5
Here you go way too fast
D#5                           C#5
Don't slow down you're gonna crash
            B5                 C#5
You should watch - watch your stay here
D#5                         C#5
Don't look out you're gonna break your neck

e|-----2-----2---2------4-----4---4----------------------------------------|
B|-0-0---0-0---0----0-0---0-0---0------------------------------------------|
G|-------------------------------------------------------------------------|
D|-------------------------------------------------------------------------|
A|-------------------------------------------------------------------------|
E|-------------------------------------------------------------------------|

   B5              C#5
So shut, shut your mouth
D#5                    C#5
Cos I'm not listening anyhow
           B5              C#5
I've had enough, enough of you
  D#5                C#5
Enough to last a life time through
    B5
So what - what do you want from me?
c#5               D#5        B5               
Got no words of sympathy and if i go around with you
    C#5                  D#5              C#5
You know that i'll get messed up too with you
With you

G#5            B5             C#5      B5
Na na na na na na na na na na na
G#5            b5             C#5      B5
Na na na na na na na na na na na 

!!!!!!!!!!!!!!!!!!!!!!!REPEAT THE CHORD PROGRESSION THROUGH THE SONG!!!!!!!!!!!!!!!!!!!!

Here you go way too fast
Don't slow down you're gonna crash
You don't know what's been going down
You've been running all over town

So shut, shut your mouth
Cos i'm not listening anyhow
I've had enough, enough of you

Enough to last a life time through
So what - what do you want from me?
Got no cure for misery and if I go around with you
You know that i'll get messed up too with you!
With you!
With you!
With you!

Na na na na na na na na na na na
Na na na na na na na na na na na

You, with you, with you
Na na na na na na na na na na na
Don't slow down you're gonna crash
Na na na na na na na na na na na
Don't Slow down you're gonna crash
Na na na na na na na na na na na
Don't slow down you're gonna crash
Na na na na na na na na na na na 
Don't slow down you're gonna crash
Na na na na na na na na na na na
Don't slow down you're gonna crash
Na na na na na na na na na na na
Don't Slow down you're gonna crash... 


            
            
Suggest correction
Creating personal tab
Creating personal tab
You can edit any tab online and save it as your Personal.

You can edit, replace or remove any tab part or add personal notes – all changes will be seen only by you.

Personal tabs can be accessed anytime from any device, even offline.
Learn more »
Give kudos to tab author, rate the tab!
1 2 3 4 5
comments
print report bad tab
1 comment total.
-1 reply
martin925 10 Feb 13, 2008 04:32 PM

Dude not even close. What's wrong with you???!!!

guest
You may want to rate the tab now too:
select rating
Wanna post a correction for this tab? Suggest correction