Oops, an error
Loading. Please wait.

Crash tab

version 2
version 2

Whole song

Interactive

7,068 views 15 this week
2 commentsread comments
1 2 3 4 5
x 10
add to favorites
×
Save as Personal and add changes to this tab that will be seen only by you. Learn more ›
×
You can save this tab as Personal to edit and correct it or add notes. All changes will be seen only by you. Learn more »
launch autoscroll
font size
0
reset
how to read this tab
guitar tuner
edit
Autoscroll
slow
fast
+/-
esc
set tempo
stop
Author
Difficulty
Yeh... The other tabs didn't really work for me - and a couple were wrong, so I posted 
here instead XD

I found on the intros on the other tabs, they don't go down to the G string, which is 
it does in the song.
Intro:
E|--2--2--2-4--4---4--2--2--2--4---4---4------------------|
B|-0-00-00-0-00--00-------------00--00--0-----------------|
G|------------------3--33-33--3-----------            -2\-|
D|----------------------------------------  x2 then:  -2\-|
A|----------------------------------------            -0\-|
E|--------------------------------------------------------|

Verse:
You start playing on the word "Go" (Quite a convenient cue :p)

Part 1:
E|-----------------------------------------------------------------|
B|-----------------------------------------------------------------|
G|-4-4-4-4-4-4-4-4-------------------------------------------------|
D|-4-4-4-4-4-4-4-4-2-2-2-2-2-2-2-2-4-4-4-4-4-4-4-4-2-2-2-2-2-2-2-2-|
A|-2-2-2-2-2-2-2-2-2-2-2-2-2-2-2-2-4-4-4-4-4-4-4-4-2-2-2-2-2-2-2-2-|  x2
E|-----------------0-0-0-0-0-0-0-0-2-2-2-2-2-2-2-2-0-0-0-0-0-0-0-0-|
P.M................................................................

This part starts on the word "Shut":
Part 2:
E|------------------------------|
B|------------------------------|
G|-4--4-------------------------|
D|-4--4---2-2--2--4--4--4-2--2--| Listen closely and you'll understand this
A|-2--2---2-2--2--4--4--4-2--2--|   little pattern
E|--------0-0--0--2--2--2-0--0--|

The intro is also played during this part.

Carry on playing Part 2 until the Bridge
"So what, what do you want from me...?"
E|
B|
G|---------------------------------4-4-4-4-4-4-4-4-9-9-9-9-9-9-9-9-|
D|-4-4-4-4-4-4-4-4-4-4-4-4-4-4-4-4-4-4-4-4-4-4-4-4-9-9-9-9-9-9-9-9-|
A|-4-4-4-4-4-4-4-4-4-4-4-4-4-4-4-4-2-2-2-2-2-2-2-2-7-7-7-7-7-7-7-7-|
E|-2-2-2-2-2-2-2-2-2-2-2-2-2-2-2-2---------------------------------|
P.M...............................................................

Play this twice, then you have this grooveh little bit with a Wah-Wah effect:

E|-------------------------------------------------|
B|-------------------------------------------------|
G|---------9~--------------------9~----------------|
D|--8-9-11---11-9p8-----8-9p8-11----11-9p8-------9-| (let this note ring)
A|-9----------------9--9--------------------9------|
E|-------------------------------------------------|

If you want to play rhythm, just palm mute F#5 until the "Na na na.." part

The "Na na na.." part is just the same as Part 2 of the verse.

Solo:
The solo is insanely easy.
E|--------------------------------------------|
B|--------------------------------------------|
G|--------------------------------------------|
D|---8-9-11-9--8-9-11-9----8-9-11-9--8-9-11-9-|
A|-9---------------------9--------------------|
E|--------------------------------------------|

Then back into the grooveh little bit XD. But it changes a little
E|--------------------------|
B|--------------------------|
G|------------9~------------|  Play this x4 I think
D|--8---9---11---11-9p8-----|
A|-9-(9)-(9)-------------9--|
E|--------------------------|
PM    .   .

Then the "Na na na..." part until the end of the song, I think.

Enjoy ^_^
Any questions n stuff...
take_this_for_a_paradox@hotmail.com =]

            
            
Suggest correction
Creating personal tab
Creating personal tab
You can edit any tab online and save it as your Personal.

You can edit, replace or remove any tab part or add personal notes – all changes will be seen only by you.

Personal tabs can be accessed anytime from any device, even offline.
Learn more »
comments
print report bad tab
2 comments total.
+2 reply
Secret7 84 Apr 13, 2009 09:32 AM

Very good! :D and the solo is perfect yaay! *****

0 reply
awsboy 10 Jul 15, 2014 05:59 AM

nice tab :)

guest
You may want to rate the tab now too:
select rating
Wanna post a correction for this tab? Suggest correction