Oops, an error
Loading. Please wait.

Indestructible intro tab

version 1
version 1

Intro

Interactive

2,729 views 3 this week
1 commentread comment
1 2 3 4 5
x 3
add to favorites
×
Save as Personal and add changes to this tab that will be seen only by you. Learn more ›
×
You can save this tab as Personal to edit and correct it or add notes. All changes will be seen only by you. Learn more »
launch autoscroll
font size
0
reset
how to read this tab
guitar tuner
edit
Autoscroll
slow
fast
+/-
esc
set tempo
stop
This is what I`ve figured out for this song but it doesn`t sound completely 
right, I`m hoping someone can play with this tab and come up with a better 
version because this is a deadly tune.

e------------------|
b---------------15-|
g--------12--------| x4
d--12h13----13-----|
a------------------|
d------------------|

the 5th time it ends like this:

e-------------------------|
b-------------------------|
g--------12-----x-8-------|
d--12h13----13--x-8-x-8---|
a---------------x-6-x-8---|
d-------------------x-6---|

It then goes into something like this little riff:

e--------------------------------|
b---------------------4-----4*---|
g-----------------*3h5---3h5-----|
d--------------------------------|
a--6~-6/8~-6/8-5-----------------|
d--------------------------------|
*Only played the first time.

That sounds pretty good to me, but let me know what you think. I can't seem 
to get the rest of the chords but hopefully this gets you started. 

-BarsaJeff

            
            
Suggest correction
Creating personal tab
Creating personal tab
You can edit any tab online and save it as your Personal.

You can edit, replace or remove any tab part or add personal notes – all changes will be seen only by you.

Personal tabs can be accessed anytime from any device, even offline.
Learn more »
Give kudos to tab author, rate the tab!
1 2 3 4 5
comments
print report bad tab
1 comment total.
-1 reply
godhendrix 10 Oct 03, 2008 12:41 PM

The last little riff should be like this instead:

e--------------------------------|
b--------------------------------|
g--------------------------------|
d----------------------8-------8-|
a--6~-6/8--6/8-----8h10---8h10---|
d--------------8~----------------|

guest
Wanna post a correction for this tab? Suggest correction