Oops, an error
Loading. Please wait.

Running For Home tab

1,447 views 1 this week
no commentswrite comment
1 2 3 4 5
2 more votes to show rating
add to favorites
×
Save as Personal and add changes to this tab that will be seen only by you. Learn more ›
×
You can save this tab as Personal to edit and correct it or add notes. All changes will be seen only by you. Learn more »
launch autoscroll
font size
0
reset
how to read this tab
guitar tuner
edit
Autoscroll
slow
fast
+/-
esc
set tempo
stop
Song: Running For Home
Artist: Matthew Good Band
Album: Beautiful Midnight
Section: Tab/Chords
Tuning: Eb Ab Db Gb Bb Eb
Tabbed By: Wade Ouellet

Intro/Verse/Chorus:
|------------------|
|------------------|
|-11-11-11---------|
|-12-12-12-12-14---|
|------------------|
|------------------|

Verse 2:
|-14-14-14---------|
|-15-15-15-15-17---|
|------------------|
|------------------|
|------------------|
|------------------|

Chords:
Verse: G A B D

Chorus: B G D A / B G A D


----


Tab 2

Song: Running For Home
Artist: Matthew Good Band
Album: Beautiful Midnight
Section: Tab/Chords
Tuning: Eb Ab Db Gb Bb Eb
Tabbed by Adam Penney

This is a simplified version of Running For Home.  The point of this tab is 
to be able to play the song with simple chords with your guitar. If played 
properly it should sound very nice on acoustic guitar.  A capo on the second
fret should bring it close to the same key as the real version, however, 
you may capo it wherever you'd like so that it's in a key you prefer to sing to.

Intro/Main Riff/Verse
    C              C                  Am                 Am       
e|-----------------------------------------------------------------------|
b|-(1)(1)(1)(1)(1)-(1)(1)(1)(1)(1)(1)-(1)(1)(1)(1)(1)(1)-(1)(1)----------|
g|-(0)(0)(0)(0)(0)-(0)(0)(0)(0)(0)(0)-(2)(2)(2)(2)(2)(2)-(2)(2)----------|
D|--2--2--2--2--0---2--2--2--2--2--0---2--2--2--2--2--0---2--2--2-0---0--|
A|--3--3--3--3--3---3--3--3--3--3--3---0--0--0--0--0--0---0--0------3----|
E|-----------------------------------------------------------------------|

Chrous

      C                          Am
e|-----------------------------------------------------------|
b|----1--1--1--1--1--1--1--1-----1--1--1--1--1--1--1--1------|
g|----0--0--0--0--0--0--0--0-----2--2--2--2--2--2--2--2------|
D|----2--2--2--2--2--2--2--2-----2--2--2--2--2--2--2--2------|
A|----3--3--3--3--3--3--3--3-----0--0--0--0--0--0--0--0------|
E|-----------------------------------------------------------|
      F(maj9?)                   G?
e|-----------------------------------------------------------|
b|----1--1--1--1--1--1--1--1-----3--3--3--3--3--3--3--3------|
g|----0--0--0--0--0--0--0--0-----0--0--0--0--0--0--0--0------|
D|----3--3--3--3--3--3--3--3-----5--5--5--5--5--5--5--5------|
A|----3--3--3--3--3--3--3--3-----5--5--5--5--5--5--5--5------|
E|-----------------------------------------------------------|

            
            
Suggest correction
Creating personal tab
Creating personal tab
You can edit any tab online and save it as your Personal.

You can edit, replace or remove any tab part or add personal notes – all changes will be seen only by you.

Personal tabs can be accessed anytime from any device, even offline.
Learn more »
Give kudos to tab author, rate the tab!
1 2 3 4 5
comments
print report bad tab
guest
You may want to rate the tab now too:
select rating
Wanna post a correction for this tab? Suggest correction