Oops, an error
Loading. Please wait.

Always Be You chords

419 views 1 this week
no commentswrite comment
1 2 3 4 5
3 more votes to show rating
add to favorites
×
Save as Personal and add changes to this tab that will be seen only by you. Learn more ›
×
You can save this tab as Personal to edit and correct it or add notes. All changes will be seen only by you. Learn more »
launch autoscroll
font size
0
reset
transpose
0
reset
display chords
guitar tuner
edit
Autoscroll
slow
fast
+/-
esc
set tempo
stop
Strumming
There is no strumming pattern for this song yet. and get +5 IQ
Matthew Mayfield
"Always Be You"

Tuning: Open D (D-A-D-F#-A-D)
Capo: 2nd Fret

Tuning Notes:
Alternatively you can play without a capo by tuning to Open E (E-B-E-G#-B-E). On YouTube,
there is a live concert video of him performing this song with Capo 4 but he plays with 
Open C tuning.

Tablature Notes: Listen for the strumming pattern to play this. The third and final 
chorus is played
with emphasis on the high e string. I did not tab this part out but you can figure it 
out by playing
along/improvising. I used the live version mentioned above to get the foundation of the 
tab down and used
the album version to clean it up so it matches the studio version.

INTRO/VERSE:
 D|--0--0--0--0--0--0--0--0--||--0--0--0--0--0--0--0--0--||--------------------------------|
 A|--0--0--0--0--0--0--0--0--||--0--0--0--0--0--0--0--0--||--------------------------------|
F#|--0--0--0--0--0--0--0--0--||--0--0--0--0--0--0--0--0--||--------------------------------|
 D|--0--0--0--0--0--0--0--0--||--0--0--0--0--0--0--0--0--||--0--0--0--0--0--0--0--0--0--0--|
 A|--5--7--9--9--7--5--7--9--||--5--7--9--9--7--5--7--9--||--0--2--2--4--4--4--5--4--2--0--|
 D|--0--0--0--0--0--0--0--0--||--0--0--0--0--0--0--0--0--||--0--0--0--0--0--0--0--0--0--0--|

 D|--0--0--0--0--0--0--0--0--|
 A|--0--0--0--0--0--0--0--0--|
F#|--0--0--0--0--0--0--0--0--|
 D|--0--0--0--0--0--0--0--0--|
 A|--5--7--9--9--7--5--7--9--|
 D|--0--0--0--0--0--0--0--0--|

CHORUS:
 D|--0--0--|
 A|--0--4--|
F#|--5--3--|
 D|--0--0--|
 A|--x--x--|
 D|--5--4--|

BRIDGE:
 D|--0--0--0--0--0--|
 A|--0--0--0--0--0--|
F#|--0--0--0--0--0--|
 D|--0--0--0--0--0--|
 A|--0--2--4--5--0--|
 D|--0--0--0--0--5--|

OUTRO:
Play INTRO/VERSE and end song with one down strum with all strings open.

            
            
Suggest correction
Creating personal tab
Creating personal tab
You can edit any tab online and save it as your Personal.

You can edit, replace or remove any tab part or add personal notes – all changes will be seen only by you.

Personal tabs can be accessed anytime from any device, even offline.
Learn more »
Give kudos to tab author, rate the tab!
1 2 3 4 5
comments
print report bad tab
guest
You may want to rate the tab now too:
select rating
Wanna post a correction for this tab? Suggest correction