Oops, an error
Loading. Please wait.

Strong Enough bass

version 1
version 1

Whole song

Interactive

336 views 3 this week
no commentswrite comment
1 2 3 4 5
3 more votes to show rating
add to favorites
×
Save as Personal and add changes to this tab that will be seen only by you. Learn more ›
×
You can save this tab as Personal to edit and correct it or add notes. All changes will be seen only by you. Learn more »
launch autoscroll
font size
0
reset
guitar tuner
edit
Autoscroll
slow
fast
+/-
esc
set tempo
stop
Tabbed by: I am Wolverine
E-mail: millegas08@yahoo.com

As I listened to the song on repeat, I realized the actual bass part is more complex
that this (read: more freestyle). I intentionally tabbed this version so you could
sing along with it and not get screwed up by the syncopation


G|-------------------------------------------------------------------|
D|-------------------------------------------------------------------|
A|--0-0-0-0-0-0-0-0-5-5-5-5-5-5-5-5-----------------5-5-5-5-5-5-5-5--|
E|----------------------------------2-2-2-2-2-2-2-2------------------|
B|-------------------------------------------------------------------|

    You must...
G|-------------------------------------------------------------------|
D|-------------------------------------------------------------------|
A|--0-0-----0-0-----5-5-----5-5--------------------------------------|
E|----------------------------------2-2-----2-2-----5-5-----5-5------|
B|-------------------------------------------------------------------|

    Forgive me...
G|-----------------------------------------------------------------------------------|
D|-----------------------------------------------------------------------------------|
A|--0-0-----0-0-----5-5-----5-5-------------------------------------2----------------|
E|----------------------------------2-2-----2-2-----0-0-----0-0----------------------|
B|-----------------------------------------------------------------------------------|

    I know...
G|-------------------------------------------------------------------|
D|-------------------------------------------------------------------|
A|--0-0-0-0-0-0-0-0-5-5-5-5-5-5-5-5-----------------5-5-5-5-5-5-5-5--|
E|----------------------------------2-2-2-2-2-2-2-2------------------|
B|-------------------------------------------------------------------|

    Hands of...
G|-------------------------------------------------------------------|
D|-------------------------------------------------------------------|
A|--0-0-0-0-0-0-0-0-5-5-5-5-5-5-5-5----------------------------------|
E|----------------------------------2-2-2-2-2-2-2-2-0-0-0-0-0-0-0-0--|
B|-------------------------------------------------------------------|

    For both...
G|-------------------------------------------------------------------|
D|-------------------------------------------------------------------|
A|--0-0-0-0-0-0-0-0-5-5-5-5-5-5-5-5-----------------5-5-5-5-5-5-5-5--|
E|----------------------------------2-2-2-2-2-2-2-2------------------|
B|-------------------------------------------------------------------|

    Well maybe...
G|-------------------------------------------------------------------|
D|-------------------------------------------------------------------|
A|--0-0-----0-0-----5-5-----5-5---------------------5-5-----5-5------|
E|----------------------------------2-2-----2-2----------------------|
B|-------------------------------------------------------------------|

    Cuz when I'm...
G|-----------------------------------------------------------------------------------|
D|-----------------------------------------------------------------------------------|
A|--0-0-----0-0-----5-5-----5-5-------------------------------------2-------2-2-2-2--|
E|----------------------------------2-2-----2-2-----0-0-----0-0----------------------|
B|-----------------------------------------------------------------------------------|

    I know...
G|-------------------------------------------------------------------|
D|-------------------------------------------------------------------|
A|--0-0-0-0-0-0-0-0-5-5-5-5-5-5-5-5-----------------5-5-5-5-5-5-5-5--|
E|----------------------------------2-2-2-2-2-2-2-2------------------|
B|-------------------------------------------------------------------|

    Hands of...
G|-------------------------------------------------------------------|
D|-------------------------------------------------------------------|
A|--0-0-0-0-0-0-0-0-5-5-5-5-5-5-5-5----------------------------------|
E|----------------------------------2-2-2-2-2-2-2-2-0-0-0-0-0-0-0-0--|
B|-------------------------------------------------------------------|

    Cuz I'm...
G|-------------------------------------------------------------------|
D|-------------------------------------------------------------------|
A|--------------------------------------------------5-5-5-5-5-5-5-5--|
E|--3-3-----3-3-----3-3-----3-3-----2-2-----2-2----------------------|
B|-------------------------------------------------------------------|

    I can...
G|-------------------------------------------------------------------|
D|-------------------------------------------------------------------|
A|--0-0-0-0-0-0-0-0-----------------0-0-0-0-0-0-0-0-5-5-5-5-5-5-5-5--|
E|------------------0-0-0-0-0-0-0-0----------------------------------|
B|-------------------------------------------------------------------|

    I don't...
G|-------------------------------------------------------------------|
D|-------------------------------------------------------------------|
A|----------------------------------4-4-4-4-4-4-4-4-5-5-5-5-5-5-5-5--|
E|--2-2-2-2-2-2-2-2-0-0-0-0-0-0-0-0----------------------------------|
B|-------------------------------------------------------------------|

    I can...
G|-------------------------------------------------------------------|
D|-------------------------------------------------------------------|
A|--0----------------------------------------------------------------|
E|-------------------------------------------------------------------|
B|-------------------------------------------------------------------|

G|-----------------------------------9--------------11---------------|
D|------------------------------------------------11-----------------|
A|-------------------------------------------------------------------|
E|-------------------------------------------------------------------|
B|-------------------------------------------------------------------|


G|-------------------------------------------------------------------|
D|-------------------------------------------------------------------|
A|--0-0-0-0-0-0-0-0-5-5-5-5-5-5-5-5-----------------5-5-5-5-5-5-5-5--|
E|----------------------------------2-2-2-2-2-2-2-2------------------|
B|-------------------------------------------------------------------|

    I know...
G|-------------------------------------------------------------------|
D|-------------------------------------------------------------------|
A|--0-0-0-0-0-0-0-0-5-5-5-5-5-5-5-5-----------------5-5-5-5-5-5-5-5--|
E|----------------------------------2-2-2-2-2-2-2-2------------------|
B|-------------------------------------------------------------------|

    Hands of...
G|-------------------------------------------------------------------|
D|-------------------------------------------------------------------|
A|--0-0-0-0-0-0-0-0-5-5-5-5-5-5-5-5----------------------------------|
E|----------------------------------2-2-2-2-2-2-2-2-4-4-4-4-4-4-4-4--|
B|-------------------------------------------------------------------|

    Strong enough...
G|-------------------------------------------------------------------|
D|-------------------------------------------------------------------|
A|--2-2-2-2-2-2-2-2-5------------------------------------------------|
E|-------------------------------------------------------------------|
B|-------------------------------------------------------------------|

            
            
Suggest correction
Creating personal tab
Creating personal tab
You can edit any tab online and save it as your Personal.

You can edit, replace or remove any tab part or add personal notes – all changes will be seen only by you.

Personal tabs can be accessed anytime from any device, even offline.
Learn more »
Give kudos to tab author, rate the tab!
1 2 3 4 5
comments
print report bad tab
guest
You may want to rate the tab now too:
select rating
Wanna post a correction for this tab? Suggest correction