Oops, an error
Loading. Please wait.

Acoustic Cool Song tab

6,511 views 3 this week
1 commentread comment
1 2 3 4 5
2 more votes to show rating
add to favorites
×
Save as Personal and add changes to this tab that will be seen only by you. Learn more ›
×
You can save this tab as Personal to edit and correct it or add notes. All changes will be seen only by you. Learn more »
launch autoscroll
font size
0
reset
how to read this tab
guitar tuner
edit
Autoscroll
slow
fast
+/-
esc
set tempo
stop
Author
-------------------------------------------------------------------------------
Acoustic Cool Song - MattRach
-------------------------------------------------------------------------------
Tabbed by: Kowaku
Tuning: Standard
Mattrach Website: http://www.youtube.com/user/mattrach?blend=1&ob=4 
Cool Acoustic Song: http://www.youtube.com/watch?v=sJCgeCTWVcM&feature=channel_page

e|------------------1+-------------------------------------------------------|
B|-----------------------1+--------------------------------------------------|
G|---------3+---------------3+-----------------------------------------------|
D|------3+-------------------------------------------------------------------|
A|---------------------------------------------------------------------------|x3
E|--3+-----------------------------------------------------------------------|
                                   
e|---------------------------------------------------------------------------|
B|---------------------------------------------------------------------------|
G|---------3~-------10~-------8--------7h8-7---------------------------------|
D|------3~----------10~-------8----88----------------------------------------|
A|---------------------------------------------------------------------------|
E|--3~--------------10~-------8----------------------------------------------|

e|---------------------------------------------------------------------------|
B|---------1-----------------------------------------------------------------|
G|---------3--------10~-------12~--------------------------------------------|
D|------3--3--------10~-------12~--------------------------------------------|
A|---------------------------------------------------------------------------|
E|--3---------------10~-------12~--------------------------------------------|

e|------1--------------------------------------------------------------------|
B|------1--------------------------------------------------------------------|
G|------3-----------10~-------8-------7h8-8/10-------------------------------|
D|------3-----------10~-------8----88----------------------------------------|
A|---------------------------------------------------------------------------|
E|--3---------------10~-------8----------------------------------------------|

e|------1--------------------------------------------------------------------|
B|------1--------------------------------------------------------------------|
G|------3-----------10~-------12------12-------------------------------------|
D|------3-----------10~-------12------12-------------------------------------|
A|---------------------------------------------------------------------------|
E|--3---------------10~-------12---12----------------------------------------|

e|---------------------------------------------------------------------------|
B|---------------------------------------------------------------------------|
G|--3---3-----3-3---3---------10---10-10---8-------7h8-7---------------------|
D|--3---3-----3-3---3---------10---10-10---8----88---------------------------|
A|---------------------------------------------------------------------------|x2|
E|--3---3---3-----3---33------10---10-10---8---------------------------------|  |
                                                                                |
e|---------------------------------------------------------------------------|  |
B|---------------------------------------------------------------------------|  |
G|--3---3-----3-3---3---------10---10-10---10/12---12-12---12-12-12-12-------|  |
D|--3---3-----3-3---3---------10---10-10---10/12---12-12---12-12-12-12-------|  |
A|---------------------------------------------------------------------------|x2|
E|--3-------3-----3---33------10---10-10---10/12---12-12---12-12-12-12-------|

e|---------------------------------------------------------------------------|
B|---------------------------------------------------------------------------|
G|--3---3-----3-3---3---------10---10-10---8-------7h8-7---------------------|
D|--3---3-----3-3---3---------10---10-10---8----88---------------------------|
A|---------------------------------------------------------------------------|
E|--3---3---3-----3---33------10---10-10---8---------------------------------|

e|---------------------------------------------------------------------------|
B|---------------------------------------------------------------------------|
G|--3---3-----3-3---3---------10~--------------------------------------------|
D|--3---3-----3-3---3---------10~--------------------------------------------|
A|---------------------------------------------------------------------------|
E|--3---3---3-----3---33------10~--------------------------------------------|

e|---------------------------------------------------------------------------|
B|---------------------------------------------------------------------------|
G|----3-3-------3-3---3/4-3/4-----3-3-------3-3-xx-10-10-10------------------|
D|----3-3-------3-3---3/4-3/4-----3-3-------3-3-xx-10-10-10------------------|
A|---------------------------------------------------------------------------|x2
E|--3-----0011223-3---3/4-3/4---3-----0011223-3-xx-10-10-10------------------|

e|---------------------------------------------------------------------------|
B|--11-xx-11-11-xx-11-11-xx-11-11-xx-11---11/13-11/13------------------------|
G|--10-xx-10-10-xx-10-10-xx-10-10-xx-10---10/12-10/12------------------------|
D|---------------------------------------------------------------------------|
A|--10-xx-10-10-xx-10-10-xx-10-10-xx-10---10/12-10/12------------------------|
E|---------------------------------------------------------------------------|

e|---------------------------------------------------------------------------|
B|--11-xx-11-11-xx-11-11-xx-11-11-xx-11---11-10-9-8--------------------------|
G|--10-xx-10-10-xx-10-10-xx-10-10-xx-10---10-9--8-7--------------------------|
D|---------------------------------------------------------------------------|
A|--10-xx-10-10-xx-10-10-xx-10-10-xx-10---10-9--8-7--------------------------|
E|---------------------------------------------------------------------------|

e|----------------------------------------13-13---13-13----------------------|
B|--11-xx-11-11-xx-11-11-xx-11-11-xx-11---13-13---13-13----------------------|
G|--10-xx-10-10-xx-10-10-xx-10-10-xx-10---12-12---12-12----------------------|
D|---------------------------------------------------------------------------|
A|--10-xx-10-10-xx-10-10-xx-10-10-xx-10--------------------------------------|
E|---------------------------------------------------------------------------|

e|---------------------------------------------------------------------------|
B|--11-xx-11-11-xx-11-11-xx-11/13---13---13-13-13-13-13-13-------------------|
G|--10-xx-10-10-xx-10-10-xx-10/12---12---12-12-12-12-12-12-------------------|
D|---------------------------------------------------------------------------|
A|--10-xx-10-10-xx-10-10-xx-10/12---10---10-10-10-10-10-10-------------------|
E|---------------------------------------------------------------------------|

e|---------------------------------------------------------------------------|
B|---------------------------------------------------------------------------|
G|----3-3-------3-3---3/4-3/4-----3-3-------3-3-xx-10-10-10------------------|
D|----3-3-------3-3---3/4-3/4-----3-3-------3-3-xx-10-10-10------------------|
A|---------------------------------------------------------------------------|x2
E|--3-----0011223-3---3/4-3/4---3-----0011223-3-xx-10-10-10------------------|

e|---------------------------------------------------------------------------|
B|--------------------5~---3~--------------------------5~--------------------|
G|----3-3-------3-3---5~---3~-----3-3-------3-3--------5~--------------------|
D|----3-3-------3-3---------------3-3-------3-3------------------------------|
A|---------------------------------------------------------------------------|
E|--3-----0011223-3-------------3-----0011223-3------------------------------|

e|---------------------------------------------------------------------------|
B|---------------------------------------------------------------------------|
G|----3-3-------3-3-----3h5-7-----3-3-------3-3-xx-10-10-10------------------|
D|----3-3-------3-3-3h5-----------3-3-------3-3-xx-10-10-10------------------|
A|---------------------------------------------------------------------------|
E|--3-------0011223-3-----------3-----0011223-3-xx-10-10-10------------------|

e|---------------------------------------------------------------------------|
B|-------------------------------------------------101010--------------------|
G|----7-7-------7-7-------9-9-----7-7-------7-7-xx-9-9-9---------------------|
D|----7-7-------7-7-------9-9-----7-7-------7-7-xx---------------------------|
A|-------------------------------------------------9-9-9---------------------|
E|--7-----4455667-7-------9-9---7-----4455667-7-xx---------------------------|

e|---------------------------------------------------------------------------|
B|---------------------------------------------------------------------------|
G|----7-7-----7---7-7-----9-9-----7-7-------7-7-xx-7--6--5-------------------|
D|----7-7-----7---7-7-----9-9-----7-7-------7-7-xx-7--6--5-------------------|
A|---------------------------------------------------------------------------|
E|--7-----7-7---7---7-----9-9---7-----4455667-7-xx-7--6--5-------------------|

e|---------------------------------------------------------------------------|
B|--------------------------6------------------------------------------------|
G|----3-3-------3-3-----3h5---7-5-3-----3-3-3-3---3---10-xx-10-xx-10-10-10---|
D|----3-3-------3-3-3h5-------------5---3-3-3-3---3---10-xx-10-xx-10-10-10---|
A|---------------------------------------------------------------------------|
E|--3-----0011223-3-------------------3---3-3-3---3---10-xx-10-xx-10-10-10---|

e|---------------------------------------------------------------------------|
B|------------------33-5-3---------------------------------------------------|
G|----3-3-------3-3-33-5-3--------3-3-------3-3------------------------------|
D|----3-3-------3-3---------------3-3-------3-3------------------------------|
A|---------------------------------------------------------------------------|
E|--3-----0011223-3-------------3-----0011223-3------------------------------|
    PMPMPM      PMPMPM      PMPMPM      PMPMPM     
e|---------------------------------------------------------------------------|
B|---------------------------------------------------------------------------|
G|----------3-3---------3-3---------3-3---------3-3--------------------------|
D|----------3-3---------3-3---------3-3---------3-3--------------------------|
A|---------------------------------------------------------------------------|x2
E|--0011223-----0011223-----0011223-----0011223------------------------------|
    PMPMPM      PMPMPM                    PMPMPM
e|---------------------------------------------------------------------------|
B|---------------------------------------------------------------------------|
G|----------3-3---------3/4-3/4-3/4---3-3---------3/4-3/4-3/4---3-3----------|
D|----------3-3---------3/4-3/4-3/4---3-3---------3/4-3/4-3/4---3-3----------|
A|---------------------------------------------------------------------------|
E|--0011223-----0011223-3/4-3/4-3/4-3-----0011223-3/4-3/4-3/4-3--------------|
    PMPMPM                      PMPMPM
e|---------------------------------------------------------------------------|
B|---------------------------------------------------------------------------|
G|------------1010-10-10----3-3-----------3/4-3/4-3/4---3-3---------10-10-10-|
D|------------1010-10-10----3-3-----------3/4-3/4-3/4---3-3---------10-10-10-|
A|---------------------------------------------------------------------------|
E|--0011223-3-1010-10-10--3-----0011223-3-3/4-3/4-3/4-3-----0011223-10-10-10-|

e|---------------------------------------------------------------------------|
B|--11-xx-11-11-xx-11-11-xx-11-11-xx-11---11/13-11/13------------------------|
G|--10-xx-10-10-xx-10-10-xx-10-10-xx-10---10/12-10/12------------------------|
D|---------------------------------------------------------------------------|
A|--10-xx-10-10-xx-10-10-xx-10-10-xx-10---10/12-10/12------------------------|
E|---------------------------------------------------------------------------|

e|---------------------------------------------------------------------------|
B|--11-xx-11-11-xx-11-11-xx-11-11-xx-11---11-10-9-8--------------------------|
G|--10-xx-10-10-xx-10-10-xx-10-10-xx-10---10-9--8-7--------------------------|
D|---------------------------------------------------------------------------|
A|--10-xx-10-10-xx-10-10-xx-10-10-xx-10---10-9--8-7--------------------------|
E|---------------------------------------------------------------------------|

e|----------------------------------------13-13---13-13----------------------|
B|--11-xx-11-11-xx-11-11-xx-11-11-xx-11---13-13---13-13----------------------|
G|--10-xx-10-10-xx-10-10-xx-10-10-xx-10---12-12---12-12----------------------|
D|---------------------------------------------------------------------------|
A|--10-xx-10-10-xx-10-10-xx-10-10-xx-10--------------------------------------|
E|---------------------------------------------------------------------------|

e|---------------------------------------------------------------------------|
B|--11-xx-11-11-xx-11-11-xx-11/13---13---13-13-13-13-13-13--------------13---|
G|--10-xx-10-10-xx-10-10-xx-10/12---12---12-12-12-12-12-12--------------12---|
D|---------------------------------------------------------------------------|
A|--10-xx-10-10-xx-10-10-xx-10/12---10---10-10-10-10-10-10-------10-----10---|
E|---------------------------------------------------------------------------|

e|---------------------------------------------------------------------------|
B|---------------------------------------------------------------------------|
G|---------3~-------10~-------8--------7h8-7---------------------------------|
D|------3~----------10~-------8----88----------------------------------------|
A|---------------------------------------------------------------------------|
E|--3~--------------10~-------8----------------------------------------------|

e|---------------------------------------------------------------------------|
B|---------1-----------------------------------------------------------------|
G|---------3--------10~-------12~-------10h11p10-----------------------------|
D|------3--3--------10~-------12~----------------12~-------------------------|
A|---------------------------------------------------------------------------|
E|--3---------------10~-------12~--------------------------------------------|

e|------1--------------------------------------------------------------------|
B|------1--------------------------------------------------------------------|
G|------3-----------10~-------8-------7h8------------------------------------|
D|------3-----------10~-------8----8-8---------------------------------------|
A|---------------------------------------------------------------------------|
E|--3---------------10~-------8----------------------------------------------|

e|------1--------------------------------------------------------------------|
B|------1--------------------------------------------------------------------|
G|------3---------------------10~--------------------------------------------|
D|------3---------------------10~--------------------------------------------|
A|---------------------------------------------------------------------------|
E|--3-------------------------10~--------------------------------------------|

e|------------------1----------------1+--------------------------------------|
B|--------------1---------------------1+-------------------------------------|
G|----------3--------------------------3+------------------------------------|
D|------3-------------------------------3+-----------------------------------|
A|---------------------------------------------------------------------------|
E|--3------------------------------------3+----------------------------------|


| /  slide up
| \  slide down
| h  hammer-on
| p  pull-off
| ~  vibrato
| +  artificial harmonic
| x  Mute note
===============================================================================

            
            
Suggest correction
Creating personal tab
Creating personal tab
You can edit any tab online and save it as your Personal.

You can edit, replace or remove any tab part or add personal notes – all changes will be seen only by you.

Personal tabs can be accessed anytime from any device, even offline.
Learn more »
Give kudos to tab author, rate the tab!
1 2 3 4 5
comments
print report bad tab
1 comment total.
+1 reply
gajzler 70 Jul 16, 2009 11:51 AM

Awesome piece man! Thanks for sharing it! More mattrach material would be much appriciated!

guest
You may want to rate the tab now too:
select rating
Wanna post a correction for this tab? Suggest correction