Oops, an error
Loading. Please wait.

Birth Pains Of Astral Projection guitar pro

1,607 views 3 this week
6 commentsread comments
1 2 3 4 5
x 10
add to favorites
guitar tuner
Autoscroll
slow
fast
+/-
esc
set tempo
stop
"Birth Pains Of Astral Projection"
demo version
Play now

or get full version for Free

×
Get full version now!
Learn and play this song
in Tab Pro
Try for free

or get $10 off Welcome Bonus

Get welcome bonus
Get access to Tab Pro version of “Birth Pains Of Astral Projection”!
Tab Pro is a premium guitar tab service, available on PC, Mac, iOS and Android
TRY FOR FREE
To download “Birth Pains Of Astral Projection” Guitar Pro tab click button below
Please note that you must have Guitar Pro software installed on your
computer in order to view this file.
Suggest correction
comments
report bad tab
6 comments total. Showing first comments.
0 reply
RoseofPain13 1,302 Aug 27, 2010 07:08 AM

really nailed it man (y)

0 reply
a.chil42 10 Sep 30, 2010 03:09 PM

I'd damn near say this is perfect... only suggestion is the main "theme" starting at 3:04.

e-----------------------------------
A----------------------0---0-0-0-0-0
D----------------------5---5-5-5-5sl
G---0------------1po0---------------
B----------3po0---------------------
D-1---0-----------------------------


Sounds more like this to me, at least when I tried to learn it by ear. This is my first time posting a correction so it may not show up right :D

0 reply
a.chil42 10 Sep 30, 2010 03:18 PM

Got it all messed up haha... meant to put:

e------------------------------------------------
B------------------------------------------------
G------------------------0----0-0-0-0-0----------
D---0------------1po0----5----5-5-5-5slide-------
A----------3po0----------------------------------
D-1---0------------------------------------------

Sorry.

guest
You may want to rate the tab now too:
select rating