Oops, an error
Loading. Please wait.

Grande Ouverture Opus 61 tab

40 views 1 this week
no commentswrite comment
1 2 3 4 5
3 more votes to show rating
add to favorites
×
Save as Personal and add changes to this tab that will be seen only by you. Learn more ›
×
You can save this tab as Personal to edit and correct it or add notes. All changes will be seen only by you. Learn more »
launch autoscroll
font size
0
reset
how to read this tab
guitar tuner
edit
Autoscroll
slow
fast
+/-
esc
set tempo
stop
About this tab version
Here is the tab for Giuliani's Grand Ouverture(Opus 61). Was this info helpful? Yes No
[Andante Sostenuto]
(4/4)
e|--5--0-0--------|----1------|---------------|----5-------|
B|--5------1------|----0------|-3--0-0--------|----6-------|
G|--5---------2-2-|----1------|--------1------|----5-------|
D|--7--2----------|-6--0------|-0---------2-2-|-3--7-------|
A|--0------3--0---|-----------|----2----------|----8-------|
E|----------------|-4---------|--------4--0---|-1----------|

e|-----------------|-----------------|
B|-1-----3-1-----3-|-1-----1-2-----2-|
G|----2-------3----|----2-------2----|
D|----3-------2----|----3-------3----|
A|-----------------|-----------------|
E|-----------------|-----------------|

e|-----------------|-0---------1---------------|
B|-3-----3-4-----4-|-------------3-0-----------|
G|----2-------2----|-1---------------1---------|
D|----3-------3----|-2-----------------3-2-0---|
A|-----------------|---------------------------|
E|-----------------|-0-0-0-0-0---0---0---0-----|

e|-----------5-2---------------|-0---------10-7---0---0---|
B|---------------5-4-----4-----|----------------9---6---3-|
G|-2------------------5--4--2--|-1----------------------4-|
D|-2---------------------------|-2------------------6-7---|
A|-3---------------------------|--------------------------|
E|-0-0-0-0-0---0---0-----0-----|-0-0-0-0-0----0---0---0---|

e|-----------12-8----0-0-----|-----------------------|-0----------------------|
B|-1--------------10---1-3-1-|-0-------0-1---2-3---4-|------------------------|
G|-2---------------------4-2-|-1-------1-2---3-4---2-|-1-------1-2---3-4---2--|
D|-2-------------------------|-----------------------|-----------------0---1--|
A|---------------------------|-----------------------|---------2-3---4--------|
E|-0-0-0-0-0----0----0---0---|-0-0-0-0---0-0---0-0---|-0-0-0-0---0-0---0-0----|

                                         [Allegro Maestoso]
                       3/4               2/4    4/4
e|-----------0---------|-0-----0-----0--|----1-|-2-2----0-0-----|
B|---------4-0-------4-|-0---4-0---4-0--|----3-|-2-2--4-0-0--2--|
G|-1-------5---------5-|-----5-----5----|----4-|-3-3--5------2--|
D|-2-------7-6-------7-|-6---7-6---7-6--|------|------7-6-6--5--|
A|---------------------|----------------|------|----------------|
E|-0-0-0-0-----0-0-0---|---0-----0---0--|------|----------------|

e|--------------|--------------|-----------2---0-|------------------|
B|-3---2-0-0--2-|-3---2-0-0--2-|---3---2---------|---3---2---0------|
G|-2---2-2-2--2-|-2---2-2-2--2-|---2---2---2---2-|---4---2---1---2--|
D|-4---2-0-0--2-|-4---2-0-0--2-|-4---2---0-------|---------0--------|
A|--------------|--------------|-------------4---|-----0-------4----|
E|--------------|--------------|-----------------|-4----------------|

e|---------------0-2-1-4-2-0-------|-2-0---0-5-2-------------|
B|---2-0---0-2-3-------------3-2-0-|-----4-------3-0---------|
G|-------3-------------------------|-------------------2---1-|
D|-4-------------------------------|---------0---------------|
A|-5-------------------------------|-4-----------------4---2-|
E|---------------------------------|-----------------0---0---|

e|-5---------------------|-----------------2-0---|------------------------|
B|-2---------------3-2-0-|-----------------3-2-3-|-2---------------3-2-0--|
G|-2---------------------|-2-------------------4-|-2----------------------|
D|-----------------4-2-0-|-----------------------|-----------------4-2-0--|
A|-0-0---0---0---0-0-0-0-|-4-0---0---0---0-0-0-0-|-0-0---0---0---0-0-0-0--|
E|-----4---4---4---------|-5---4---4---4---------|-----4---4---4----------|

e|---2-0-----5-4-2-|-0-10------7-----10-7-----10-7-----|
B|---3-2-3-2-7-5-3-|-0-----------9--------9--------9---|
G|-2-----4-2-------|---------------9--------9--------9-|
D|-----------------|-----------------------------------|
A|-4-0-0-0-0-0-0-0-|-----------------------------------|
E|-5---------------|-0----------------0--------0-------|

e|-10-7-------0---0---0---0---0---0-|-5---------------------|
B|------9-------0-------------------|-----------------3-2-0-|
G|--------9-7-------1---------------|-6---------------------|
D|----------------------2---0-------|-7---------------4-2-0-|
A|------------------------------2---|-0-0---0---0---0-0-0-0-|
E|--0-------------------------------|-----4---4---4---------|

e|-----------------2-0---|-----------------------|---2-0-----5-4-2-|
B|-----------------3-2-3-|-2---------------3-2-0-|---3-2-3-2-7-5-3-|
G|-2-------------------4-|-2---------------------|-2-----4-2-------|
D|-----------------------|-----------------4-2-0-|-----------------|
A|-4-0---0---0---0-0-0-0-|-0-0---0---0---0-0-0-0-|-4-0-0-0-0-0-0-0-|
E|-5---4---4---4---------|-----4---4---4---------|-5---------------|

e|-0-10------7-----10-7-----10-7-----|-10-7-------0---0---0---0---0---0-|
B|-0-----------9--------9--------9---|------9-------0-------------------|
G|---------------9--------9--------9-|--------9-7-------1---------------|
D|-----------------------------------|----------------------2---0-------|
A|-----------------------------------|------------------------------2---|
E|-0----------------0--------0-------|--0-------------------------------|

e|---------------0-0-0-0-|-0---5---2-----0-0-0-0-|
B|-----2---3---4---3-3-3-|-2-----------4---3-3-3-|
G|-----------------4-4-4-|-2-2-------------4-4-4-|
D|-------0---1---2-------|-------4---1---2-------|
A|---4-------------------|-0---------------------|
E|-5---------------0-4-0-|-----------------0-4-0-|

e|-0---------------4-4-4-|-2---------------2-2-2-|
B|-2-------0---1-2-2-2-2-|-2---0---------0-0-0-0-|
G|-2---2-----------4-4-4-|-2-------2---3---2-2-2-|
D|-----------------3-3-3-|-4---------------1-1-1-|
A|-0-0---2---3---4-------|-------0---1---2-------|
E|-----------------------|---4-------------------|

e|-0-----------------------------|-----------------|
B|-0---------------------------0-|-1-------1-------|
G|-1-----------0---1---2---3-----|-------0-------0-|
D|-2---2---4---------------------|-----------------|
A|-------------------0---1---2---|-3-------3-------|
E|---0---2---3---4---------------|-----3-------3---|

e|-------------------------------0-|-----------------0--0--|
B|---1-------1---5---1-------1-----|-1-------1-----1----2--|
G|-------0---------------0---------|-------0-----0---------|
D|-------------2---------------2---|-----2-----2-----------|
A|-3-------3-------3-------3-------|---3----------------1--|
E|-----3---------------3-----------|-----------------------|

e|-------------------------|-------------------4-|-2-----------------------|
B|-4---------0-0-0---0-0-0-|-0-----0-0-0-----0---|-0--0---0--0-0-0---0-0-0-|
G|-4--4---4--------1-----1-|-2---2---2-1---1---4-|-----------------1-----1-|
D|-------------------------|-4-4-----4-2-2-----2-|-1-----------------------|
A|-2-----------------------|---------------------|-------------------------|
E|-------------------------|---------------------|-------------------------|

e|-------------------3-|-2-------------------2---|
B|-0-------0-0-------0-|---------2---4-2-5-4---5-|
G|-3---2-4-2-1---0-4---|-4---3-4---4-------------|
D|-5-4-----4-3-2-----2-|-1-----------------------|
A|---------------------|-------------------------|
E|---------------------|-------------------------|

(4/4)
e|-----------0---2-0-4-2-5-4-|-------------------------|
B|-3-4---4-2---4-------------|-6-7---10-9---------10-9-|
G|---------------------------|------------10-11--------|
D|---------------------------|-----9------------9------|
A|-----2---------------------|-------------------------|
E|---------------------------|-------------------------|

e|---0-------------|-----------------------|
B|-7---4-2-0-------|-------------0---0-2-0-|
G|-----------3-2---|-----------3---3-------|
D|---------------4-|-2---------------------|
A|-----------------|-------2---------------|
E|-----------------|---0-4---0-------------|

e|-------------0---0-2-0-|-----------------------|
B|-----------4---4-------|-0-----------------2---|
G|-1---------------------|-1---------3-4-3-4---4-|
D|-----------------------|-----------------------|
A|-------2---------------|-------2---------------|
E|---0-4---0-------------|---0-4---0-------------|

e|-----0---0-2-0---4-2-0-------|-----------------------|
B|---4---4-------0-------4-2-0-|-------------------0---|
G|-1---------------------------|-2---------1-2-1-2---2-|
D|-----------------------------|-----1-4---------------|
A|-----------------------------|---2-----2-------------|
E|-0-------------0-------------|-----------------------|

e|-----------1-2-1-2-4-2-|-----------------------|
B|-----------------------|-4---------------------|
G|-----------------------|-----------1-2-1-2-4-2-|
D|-4---1-4---------------|-----1-4---------------|
A|---2-----2-------------|---2-----2-------------|
E|-----------------------|-----------------------|

e|-----------------2-0---------|-----------------|-----------------|
B|-0---------0---0-----4-2-0---|-------1-2-1-2---|-0---0---2-1-2---|
G|---1-2-1-2---2-------------2-|-1-----1-2-1-2-3-|---3-1-1-2-1-2-3-|
D|-4-------------4-------------|---------------5-|-6-5---2-------5-|
A|-----------------------------|-----------------|-----------------|
E|-----------------------------|-0-0-0-0-0-0-0-0-|-0-0-0-0-0-0-0-0-|

(6/4)
e|----------------------------0-----------------|
B|-0--------------0-----2-------2---4-----2-----|
G|-1--1-----2-------1-----2-----------4-----2---|
D|------2-----4---------------------------------|
A|----------------------------------------------|
E|-0------0-----0-----0-----0-----0-----0-----0-|

e|-------------------------------0-----------------|
B|-0-----------------0-----2-------2---4-----2-----|
G|---1---1-----2-------1-----2-----------4-----2---|
D|---------2-----4---------------------------------|
A|-------------------------------------------------|
E|-----0-----0-----0-----0-----0-----0-----0-----0-|

e|-------------------------------------0-----2-----|
B|-0-----------------0-----2-----4-------2-----4---|
G|---1---1-----2-------1-----2-----4---------------|
D|---------2-----4---------------------------------|
A|-------------------------------------------------|
E|-----0-----0-----0-----0-----0-----0-----0-----0-|

e|-4p0-----0h4---0h4---0h4---0h4---0h4---0h4---0h4-|
B|-------------------------------------------------|
G|-------------------------------------------------|
D|-------------------------------------------------|
A|-------2-----4-----2-----1-----1-----4-----4-----|
E|-----0-------------------------------------------|

e|---0h4---0h4---0h4---0h4---0h4---0h4---0h4---0h4-|
B|-------------------------------------------------|
G|-------------------------------------------------|
D|-------------------------------------------------|
A|-2-----3-----4-----2-----1-----1-----4-----4-----|
E|-------------------------------------------------|

e|---0h4---0h4---0h3---0h3---0h3---0h3---0h3---0h3-|
B|-------------------------------------------------|
G|-------------------------------------------------|
D|-------------------------------------------------|
A|-2-----2-----3-----3-----3-----3-----1-----1-----|
E|-------------------------------------------------|

e|---0h4---0h4---0h4---0h4---0h4---0h4---0h4---0h4-|
B|-------------------------------------------------|
G|-------4-----------4-----------4-----------4-----|
D|-------------------------------------------------|
A|-2-----------2-----------2-----------2-----------|
E|-------------------------------------------------|

e|---0h2---0h2---0h2---0h2-----2-----2-----2-----2-|
B|---------------------------4-----4-----4-----4---|
G|-------4-----------4-----------4-----------4-----|
D|-------------------------------------------------|
A|-2-----------2-----------2-----------2-----------|
E|-------------------------------------------------|

e|-0-4-----5-----7-----9------8-----9------6-----|
B|-----5-----7-----9-----10-----9-----10-----8---|
G|-----------------------------------------------|
D|-----------------------------------------------|
A|-----------------------------------------------|
E|-0-----0-----0-----0------0-----0------0-----0-|

e|-7-------------------7-----9------8-----9------6-----|
B|---9---9-----10--------9-----10-----9-----10-----8---|
G|---------9------11-----------------------------------|
D|-----------------------------------------------------|
A|-----------------------------------------------------|
E|-----0-----0-------0-----0------0-----0------0-----0-|

e|-7-----------------------------------0-----2-----|
B|---9---------------0-----2-----4-0-----2-----4---|
G|-------1-----2-------1-----2---------------------|
D|---------2-----4---------------------------------|
A|-------------------------------------------------|
E|-----0-----0-----0-----0-----0-----0-----0-----0-|

e|---------0h4---0h4---0h4---0h4---0h4---0h4---0h4-|
B|-9-----------------------------------------------|
G|---9---------------------------------------------|
D|-------------------------------------------------|
A|-------2-----4-----2-----1-----1-----4-----4-----|
E|-----0-------------------------------------------|

e|---0h4---0h4---0h4---0h4---0h4---0h4---0h4---0h4-|
B|-------------------------------------------------|
G|-------------------------------------------------|
D|-------------------------------------------------|
A|-2-----3-----4-----2-----1-----1-----4-----4-----|
E|-------------------------------------------------|

e|---0h4---0h4---0h3---0h3---0h3---0h3---0h3---0h3-|
B|-------------------------------------------------|
G|-------------------------------------------------|
D|-------------------------------------------------|
A|-2-----2-----3-----3-----3-----3-----1-----1-----|
E|-------------------------------------------------|

e|---0h4---0h4---0h4---0h4---0h4---0h4---0h4---0h4-|
B|-------------------------------------------------|
G|-------4-----------4-----------4-----------4-----|
D|-------------------------------------------------|
A|-2-----------2-----------2-----------2-----------|
E|-------------------------------------------------|

                                                   (4/4)
e|---0h2---0h2---0h2---0h2-----2-----2-----2-----2-|-0-7-----------5-----7-5-|
B|-------0-----------0-------4-----4-----4-----4---|-----9---9-------7-4-----|
G|-------------------------------4-----------4-----|-------9---9-6-----------|
D|-------------------------------------------------|-------------------------|
A|-2-----------2-----------2-----------2-----------|-------------0-----------|
E|-------------------------------------------------|-0-----0-----------2-----|

e|-4-7---0-4-0---5-2-------|-0-------0-----0---7-----|
B|-----9-------2-----4---4-|-------0-----0---9-----7-|
G|---------------------4---|-----1-----1-----------4-|
D|-------------------------|---2-------------------7-|
A|-------------0-----------|-------------------------|
E|-0-----0-----------2-----|-0-------------------7---|

e|-0-------0-----0---7-----|-0-0-----4-4-----|-7-7-----12-12------|
B|-------0-----0---9-----7-|-0-0-----5-5-----|-9-9------9--9------|
G|-----1-----1-----------4-|---------4-4-----|-9-9------9--9------|
D|---2-------------------7-|-6-6-------------|--------------------|
A|-------------------------|-----------------|--------------------|
E|-0-------------------7---|-----0-0-----0-0-|-----0-0-------0-0--|

e|-12-12---------|-12-12---------|-0-0-----0-0-----|-0--0---------|
B|--9--9---------|--9--9---------|-----------------|--------------|
G|--9--9---------|--9--9---------|-----------------|--------------|
D|---------------|---------------|-----2-2-----2-2-|-------2--2---|
A|---------------|---------------|-----------------|--------------|
E|-------0-0-----|-------0-0-----|-----------------|--------------|

e|---------------------------------|-0--------------------------------|
B|-1-------------------1---1---1---|---------1-----------1---1---1----|
G|---0---0---0---0---0---0---0---0-|---0---0---0---0---0---0---0---0--|
D|-----2-------2-------2-------2---|-----2-------2-------2-------2----|
A|-3-------3-------3-------3-------|-3-------3-------3-------3--------|
E|---------------------------------|----------------------------------|

e|---------------------------------|-1-------------------------------|
B|-3-------------------3---3---3---|---------3-----------3---3---3---|
G|---2---2---2---2---2---2---2---2-|---2---2---2---2---2---2---2---2-|
D|-----3-------3-------3-------3---|-----3-------3-------3-------3---|
A|-3-------3-------3-------3-------|-3-------3-------3-------3-------|
E|---------------------------------|---------------------------------|

e|-0-------------------0---0---0---|-3-------0-----------0---0---0---|
B|---------------------------------|---------------------------------|
G|---3---3---3---3---3---3---3---3-|---3---3---3---3---3---3---3---3-|
D|-----2-------2-------2-------2---|-----2-------2-------2-------2---|
A|-3-------3-------3-------3-------|-3-------3-------3-------3-------|
E|---------------------------------|---------------------------------|

e|-1-------------------1---1---1---|---------------------------------|
B|---------------------------------|-0-------0-------0-------0-------|
G|---2---2---2---2---2---2---2---2-|---1---1---1---1---1---1---1---1-|
D|-----3-------3-------3-------3---|-----3-------3-------3-------3---|
A|-3-------3-------3-------3-------|-3-------3-------3-------3-------|
E|---------------------------------|---------------------------------|

e|---3--1-0-------|-0-------0-------|----------------------------------|
B|---5--3-1-3-1-3-|-1-3-1-3-1-3-1---|-1-------------------1---1---1----|
G|-5--------0---0-|---0---0---0---0-|---0---0---0---0---0---0---0---0--|
D|------------2---|-----2-------2-0-|-----2-------2-------2-------2----|
A|-3--------------|-----------------|-3-------3-------3-------3--------|
E|----------------|-----------------|----------------------------------|

e|-0-------------------------------|---------------------------------|
B|---------1-----------1---1---1---|-3-------------------3---3---3---|
G|---0---0---0---0---0---0---0---0-|---1---1---1---1---1---1---1---1-|
D|-----2-------2-------2-------2---|-----3-------3-------3-------3---|
A|-3-------3-------3-------3-------|-3-------3-------3-------3-------|
E|---------------------------------|---------------------------------|

e|-1-------------------------------|---------------------------------|
B|---------3-----------3---3---3---|-3-------------------3---3---3---|
G|---1---1---1---1---1---1---1---1-|---1---1---1---1---1---1---1---1-|
D|-----3-------3-------3-------3---|-----3-------3-------3-------3---|
A|-3-------3-------3-------3-------|-1-------1-------1-------1-------|
E|---------------------------------|---------------------------------|

e|-1-------------------------------|-1-----------------------1-------|
B|---------3-----------3---3---3---|---------3-----------3-------3---|
G|---1---1---1---1---1---1---1---1-|---2---2---2---2---2---2---2---2-|
D|-----3-------3-------3-------3---|-----3-------3-------3-------3---|
A|-1-------1-------1-------1-------|-0-------0-------0-------0-------|
E|---------------------------------|---------------------------------|

e|-5-------5-------5-------5-------|
B|---2---2---2---2---2---2---2---2-|
G|-----2-------2-------2-------2---|
D|---------------------------------|
A|-0-------0-------0-------0-------|
E|---------------------------------|

e|-----1-----1-----1-----1-----1-----1-----1-----1-|
B|---3-----3-----3-----3-----3-----3-----3-----3---|
G|-------------2-----------------------2-----------|
D|-0-----3-----------3-----0-----3-----------3-----|
A|-------------------------------------------------|
E|-------------------------------------------------|

e|-----5---6---5---3---1---0-----|
B|-----------------------------3-|
G|---2---3---2---0---------------|
D|-0-----------------3---2---0---|
A|-------------------------------|
E|-------------------------------|

e|-----0-----0-----0-----0-----0-----0-----0-----0--|
B|---2-----2-----2-----2-----2-----2-----2-----2----|
G|--------------------------------------------------|
D|-------------2-----------------------2------------|
A|-0-----4-----------4-----0-----4-----------4------|
E|--------------------------------------------------|

e|-----4---5---6---5---3---1---0-|
B|-------------------------------|
G|---1---2---3-------------------|
D|---------------7---5---3---2---|
A|-0-----------------------------|
E|-------------------------------|

e|-----1-----1-----1-----1-----1-----1-----1-----1--|
B|---3-----3-----3-----3-----3-----3-----3-----3----|
G|-------------2-----------------------2------------|
D|-0-----3-----------3-----0-----3-----------3------|
A|--------------------------------------------------|
E|--------------------------------------------------|

e|-----4---5---3---1---0---------|
B|-------------------------3---1-|
G|---1---2---0-------------------|
D|-0-------------3---2---0-------|
A|---------------------------3---|
E|-------------------------------|

e|-----1-----1-----1-----1-----1-----1-----1-----1--|
B|---3-----3-----3-----3-----3-----3-----3-----3----|
G|-------------0-----------------------0------------|
D|-------0-----------0-----------0-----------0------|
A|-2-----------------------2------------------------|
E|--------------------------------------------------|

e|-------------------------------|
B|-------------------------------|
G|-----0-------0---1---2---3---4-|
D|---------4---------------------|
A|-2-----------------0---1---2---|
E|---3---2---3---4---------------|

e|-----0-----0-----0-----0-----0-----0-----0-----0--|
B|---1-----1-----1-----1-----3-----3-----3-----3----|
G|-------------0-----------------------1------------|
D|-------2-----------2-----------2------------------|
A|-3-----------------------2-----------------2------|
E|--------------------------------------------------|

e|-----0-----0-----0-----0-----1-----1-----2-----2-|
B|---1-----1-----1-----1-----0-----0-----0-----0---|
G|-------------2-----------------2-----------2-----|
D|-------2-----------------0-----------1-----------|
A|-0-----------------3-----------------------------|
E|-------------------------------------------------|

e|-0------------------------------|
B|-0------------------------------|
G|-1-----------------------2------|
D|-----2---2---2---3---2-------6--|
A|-----------------------0--------|
E|-0-0---0---0---1---0-------4----|

e|-----------1---0-----------------|---------------------------------|
B|---1---0-----------3---1---0-----|---------------------------------|
G|-------------------------------2-|---1---4---1---------------2---1-|
D|---------3---2---0---------------|---------------2---3---2---------|
A|-3---2---------------3---2---0---|-----2-------------------0-------|
E|---------------------------------|-4-------4---0---1---0-------4---|

e|-----------1---0-----------------|-------0---0---0---0---0---0---0-|
B|---1---0-----------3---1---0-----|-----0---4---3---2---1---0-------|
G|-------------------------------2-|---1-------------------------2---|
D|---------3---2---0---------------|---------------------------------|
A|-3---2---------------3---2---0---|---------------------------------|
E|---------------------------------|-0-------------------------------|

e|---0---0---0---0---0---0---0---0-|-------0-----------0-----|
B|---------------------------------|-----0---4-1-----0---4-1-|
G|-1-------------------------------|---1-------2---1-------2-|
D|-----2---1---0-------------------|-------------------------|
A|-----------------4---3---2---0---|-------------------------|
E|---------------------------------|-0-----------0-----------|

e|-------0-----0---0---|-0-----0---1-|-2-2----0-0----|---------------|
B|-----0---4---0-4-0-4-|-0---4-0---3-|-2-2--4-0-0--2-|-3---2-0-0--2--|
G|-----------5---5---5-|-----5-----4-|-3-3--5------2-|-2---2-2-2--2--|
D|---6-------7-6-7-6-7-|-6---7-6-----|------7-6-6--5-|-4---2-0-0--2--|
A|---------------------|-------------|---------------|---------------|
E|-0-------------------|-------------|---------------|---------------|

e|--------------|-----------2---0-|-----------------|
B|-3---2-0-0--2-|---3---2---------|---3---2---0-----|
G|-2---2-2-2--2-|---2---2---2---2-|---4---2---1---2-|
D|-4---2-0-0--2-|-4---2---0-------|---------0-------|
A|--------------|-------------4---|-----0-------4---|
E|--------------|-----------------|-4---------------|

e|---------------0-2-1-4-2-0-------|-2-0---0-5-2-------------|
B|---2p0-----2-3-------------3-2---|-----4-------3-----------|
G|-------3-4---------------------4-|---------------4---2---1-|
D|-4-------------------------------|---------0---------------|
A|-5-------------------------------|-4-----------------4---2-|
E|---------------------------------|-----------------0---0---|

e|-5---------------------|-----------------2-0---|------------------------|
B|-2---------------3-2-0-|-----------------3-2-3-|-2---------------3-2-0--|
G|-2---------------------|-2-------------------4-|-2----------------------|
D|-----------------4-2-0-|-----------------------|-----------------4-2-0--|
A|-0-0---0---0---0-0-0-0-|-4-----0---0---0-0-0-0-|-0-0---0---0---0-0-0-0--|
E|-----4---4---4---------|-5-5-4---4---4---------|-----4---4---4----------|

e|---2-0-----5-4-2-|-0-10------7-4---10-7-----10-7-----|
B|---3-2-3-2-7-5-3-|-0-------------5------9--------9---|
G|-------4-2-------|------------------------9--------9-|
D|-7---------------|-----------------------------------|
A|-4-0-0-0-0-0-0-0-|-----------------------------------|
E|-5---------------|-0----------------0--------0-------|

e|-10-7-------0---0---0---0---0---0-|---------------0-0-0-0-|
B|------9-------0-------------------|-----2---3---4---3-3-3-|
G|--------9-7-------1---------------|-----------------4-4-4-|
D|----------------------2---0-------|-------0---1---2-------|
A|------------------------------2---|-0-4-------------------|
E|--0-------------------------------|-----------------0-4-0-|

e|-0---5---2-----0-0-0-0-|-0---------------------------0-|
B|-2-----------4---3-3-3-|-2-------0---1---2---3---4-----|
G|-2-2-------------4-4-4-|-2---2-------------------------|
D|-------4---1---2-------|-------------------0---1---2---|
A|-0---------------------|-0-0---2---3---4---------------|
E|-----------------0-4-0-|-------------------------------|

e|-1-------1-------|---1---------------1-------------|
B|-------1-------1-|-------1-------1-------1-------1-|
G|-----------------|-----------2---------------2-----|
D|-3-------3-------|-3---------------3---------------|
A|-----3-------3---|-----3---0---3-------3---0---3---|
E|-----------------|---------------------------------|

e|-1-------1-----1-5--5--|-4-------------0-0-|-------------------5--|
B|-------1-----1------4--|-5---------2-3-2-2-|-3-0-2-3-3-2---0-2-2--|
G|-----2-----2--------5--|-4---------2-4-----|-4-1-2-4-4-2-2--------|
D|---3----------------3--|-------------------|----------------------|
A|-----------------------|-------------------|----------------------|
E|-----------------------|-0-0-0-0-0-0---0-0-|-0-0---0-0-0-0---0-0--|

e|-4-------------0-0-|-------------------5-|-4-----------4---5-4-7-5-|
B|-0---------2-3-2-2-|-3-0-2-3-3-2---0-2-2-|-0---4-5-7-5---7---------|
G|-----------2-4-----|-4-1-2-4-4-2-2-------|-------------------------|
D|-------------------|---------------------|-------------------------|
A|-------------------|---------------------|-------------------------|
E|-0-0-0-0-0-0---0-0-|-0-0---0-0-0-0---0-0-|-0-----------------------|

e|----------------7----9-7-10-9-|---------10-9---------10-9-|
B|-8-9---8-9-10-9---10----------|-11-12--------11-12--------|
G|------------------------------|---------------------------|
D|------------------------------|---------------------------|
A|------------------------------|---------------------------|
E|-----0------------------------|-------0------------0------|

e|-7-5-4---0-------|-------------0---0-2-0-|
B|-------7---4-3-0-|-----------4---4-------|
G|-----------------|-2---------------------|
D|-----------------|-------2---------------|
A|-----------------|---0-4---0-------------|
E|-----------------|-----------------------|

e|-----------4-5-4-5-7-5-|-0---------------------|
B|-2---------------------|-2---------1-2-1-2-3-2-|
G|-2---------------------|-----------------------|
D|-------2---------------|-------2---------------|
A|---0-4---0-------------|---0-4---0-------------|
E|-----------------------|-----------------------|

e|-----0---0-2-0---9-7-5-----0-|-------------------0---|
B|---4---4---------------9-7---|-3---------2-3-2-3---3-|
G|-2-------------6-------------|-4---------------------|
D|-----------------------------|-----------------------|
A|-0-------------0-------------|-------2---------------|
E|-----------------------------|---0-4---0-------------|

e|-----------3-4-3-4-5-4-|-0---------------------|
B|-0---------------------|-0---------2-3-2-3-5-3-|
G|-1---------------------|-----------------------|
D|-----------------------|-----------------------|
A|-------2---------------|-------2---------------|
E|---0-4---0-------------|---0-4---0-------------|

e|-----------0-----7-5-4-------|-------1-2-1-2---|-0---0---2-1-2---|
B|---2-3-2-3---3-0-------7-5-3-|-2-----2-3-2-3-4-|-2-4-2-2-3-2-3-4-|
G|-4---------------------------|---------------5-|---5---2-------5-|
D|-----------------------------|-----------------|-----------------|
A|-----------------------------|-0-0-0-0-0-0-0-0-|-0-0-0-0-0-0-0-0-|
E|-0-------------0-------------|-----------------|-----------------|

(4/4)
e|-0-------------0-----2-----5-----4-----2-----|
B|-2-2-----3-------2-----3-----7-----5-----3---|
G|-----2-----4---------------------------------|
D|---------------------------------------------|
A|-0-----0-----0-----0-----0-----0-----0-----0-|
E|---------------------------------------------|

e|-0-----------------0-----2-----5-----4-----2-----|
B|---2---2-----3-------2-----3-----7-----5-----3---|
G|---------2-----4---------------------------------|
D|-------------------------------------------------|
A|-----0-----0-----0-----0-----0-----0-----0-----0-|
E|-------------------------------------------------|

e|-------------------0-----2-----4-----5-----7-----|
B|-5-----2-----3-------2-----3-----5-----7-----9---|
G|---6-----2-----4---------------------------------|
D|-------------------------------------------------|
A|-----------0-----0-----0-----0-----0-----0-----0-|
E|-----5-------------------------------------------|

e|-9-----------9------9------9-------9-------9------9------9-|
B|---10-----10-----10-----10------10------10-----10-----10---|
G|-----------------------------------------------------------|
D|-----------------------------------------------------------|
A|------0-7------9------7----------------------9------9------|
E|-----------------------------11------11--------------------|

e|------9------9------9------9-------9-------9------9------9-|
B|---10-----10-----10-----10------10------10-----10-----10---|
G|-----------------------------------------------------------|
D|-----------------------------------------------------------|
A|-7------8------9------7----------------------9------9------|
E|-----------------------------11------11--------------------|

e|------9------9------8------8------8------8-------8-------8-|
B|---10-----10-----10-----10-----10-----10------10------10---|
G|-----------------------------------------------------------|
D|-----------------------------------------------------------|
A|-7------7------8------8------8------8----------------------|
E|-------------------------------------------11------11------|

e|------9------9------9------9------9------9------9------9-|
B|---10-----10-----10-----10-----10-----10-----10-----10---|
G|--------9-------------9-------------9-------------9------|
D|---------------------------------------------------------|
A|---------------------------------------------------------|
E|-0-------------0-------------0-------------0-------------|

e|---5-7---5-7---5-7---5-7-----7-----7-----7-----7-|
B|-------5-----------5-------9---5-9-----9---5-9---|
G|-------------------------------------------------|
D|-------------------------------------------------|
A|-------------------------------------------------|
E|-0-----------0-----------0-----------0-----------|

e|---5-----7-----9-----10------9------10------8-----|
B|--------------------------------------------------|
G|-----6-----7-----9------11-----10------11-----8---|
D|--------------------------------------------------|
A|-0-----0-----0-----0-------0------0-------0-----0-|
E|--------------------------------------------------|

e|-9-----5-----7-----9-----10------9------10------8-----|
B|------------------------------------------------------|
G|---9-----6-----7-----9------11-----10------11-----8---|
D|------------------------------------------------------|
A|-----0-----0-----0-----0-------0------0-------0-----0-|
E|------------------------------------------------------|

e|-9-----------------0-----2-----4-----5-----7-----|
B|-------2-----3-------2-----3-----5-----7-----9---|
G|---9-----2-----4---------------------------------|
D|-------------------------------------------------|
A|-----0-----0-----0-----0-----0-----0-----0-----0-|
E|-------------------------------------------------|

e|-9-----------9------9------9-------9-------9------9------9-|
B|---10-----10-----10-----10------10------10-----10-----10---|
G|-----------------------------------------------------------|
D|-----------------------------------------------------------|
A|------0-7------9------7----------------------9------9------|
E|-----------------------------11------11--------------------|

e|------9------9------9------9-------9-------9------9------9-|
B|---10-----10-----10-----10------10------10-----10-----10---|
G|-----------------------------------------------------------|
D|-----------------------------------------------------------|
A|-7------8------9------7----------------------9------9------|
E|-----------------------------11------11--------------------|

e|------9------9------8------8------8------8------8------8-|
B|---10-----10-----10-----10-----10-----10-----10-----10---|
G|---------------------------------------------------------|
D|---------------------------------------------------------|
A|-7------7------8------8------8------8------6------6------|
E|---------------------------------------------------------|

e|------9------9------9------9------9------9------9------9-|
B|---10-----10-----10-----10-----10-----10-----10-----10---|
G|--------9-------------9-------------9-------------9------|
D|---------------------------------------------------------|
A|---------------------------------------------------------|
E|-0-------------0-------------0-------------0-------------|

e|------7------7------7------7-----7-----7-----7-----7-|
B|---10-----10-----10-----10-----9-----9-----9-----9---|
G|--------9-------------9------------9-----------9-----|
D|-----------------------------------------------------|
A|-----------------------------------------------------|
E|-0-------------0-------------0-----------0-----------|

(4/4)
e|---12-------9-------10-9----12-10-|
B|------14------10---------12-------|
G|---------14------11---------------|
D|------------------0---------------|
A|-0--------0-----------------------|
E|--------------------------0-------|

e|-9-12-9----9-------10-9-7---7-|---------5---0----9-10-12------|
B|--------10---10-----------9---|-------5-------10-----------12-|
G|----------------11------------|-----6-----6-----------------9-|
D|-----------------0------------|---7------------------------12-|
A|-0-------0--------------------|-------------------------------|
E|------------------------0-----|-5------------------------0----|

e|----------------------9-10-12------|------------9--9-----|
B|-----------10------10-----------12-|-10-10-----10-10-----|
G|---------9-------9---------------9-|--9--9------9--9-----|
D|------11------11----------------12-|-11-11---------------|
A|-0-12------------------------------|-------0-0-------0-0-|
E|------------------------------0----|---------------------|

e|-12-12-----17-17-----|-17-17---------|-17-17---------|
B|-14-14-----14-14-----|-14-14---------|-14-14---------|
G|---------------------|---------------|---------------|
D|---------------------|---------------|---------------|
A|-------0-0-------0-0-|-------0-0-----|-------0-0-----|
E|---------------------|---------------|---------------|

e|-5-5-----5-5-----|-5--5--------|---------------------------------|
B|-----------------|-------------|---------------------------------|
G|-----2-2-----2-2-|-------2--2--|---------------------------------|
D|-----------------|-------------|---3---3---3---3---3---3---3---3-|
A|-----------------|-------------|---------------------------------|
E|-----------------|-------------|-1---1---1---1---1---1---1---1---|

e|---------------------------------|----------------------------------|
B|-1-----------1---1-----------1---|-2-----------2---2-----------2----|
G|---------------------------------|----------------------------------|
D|---3---3---3---3---3---3---3---3-|---3---3---3---3---3---3---3---3--|
A|-----0-------0-------0-------0---|-----0-------0-------0-------0----|
E|-1-------1-------1-------1-------|-1-------1-------1-------1--------|

e|---------------------------------|----------------------------------|
B|-3-----------3---3-----------3---|-4-----------4---4-----------4----|
G|---------------------------------|----------------------------------|
D|---3---3---3---3---3---3---3---3-|---3---3---3---3---3---3---3---3--|
A|-----0-------0-------0-------0---|-----0-------0-------0-------0----|
E|-1-------1-------1-------1-------|-1-------1-------1-------1--------|

e|-0-----------------------0-----0-|-------0----9------9-12-----|
B|-----------------2-----2-----2---|-10------10-----10-------9--|
G|---------2-----2-----2-----2-----|--------------9----------7--|
D|-------2-----2-----2-------------|----11-------------------9--|
A|-----0-----0---------------------|----------------------------|
E|---0-----------------------------|-------------------------0--|

e|-----------9-12---10-7-------|-----------9-12---10-7-------|
B|--------10-------------9-----|--------10-------------9-----|
G|------9------------------9-7-|------9------------------9-7-|
D|---11------------------------|---11------------------------|
A|-0---------------------------|-0---------------------------|
E|----------------0------------|----------------0------------|

e|-----5-------5-------5-------4---|-------0----9-12-9-10-7-4-0---0---0--|
B|---2---2---2---2---0---0---0---0-|---------10-----------------3---0----|
G|---------------------------------|-----6-------------------------------|
D|---------4-------0---------------|---7---------------------------------|
A|-0-------------------------------|-0-----------------------------------|
E|-------------------------0-------|--------------------0----------------|

e|-------0----9-12-9-10-7-4-0---0---0-|-----5-------5-------5-------4----|
B|---------10-----------------3---0---|---2---2---2---2---0---0---0---0--|
G|-----6------------------------------|----------------------------------|
D|---7--------------------------------|---------4------------------------|
A|-0----------------------------------|-0---------------5----------------|
E|--------------------0---------------|-------------------------0--------|

e|---5---5---5---5---5---5---5---5-|---5---5---5---5---5---5---5---5--|
B|---------------------------------|---2---2---2---2---2---2---2---2--|
G|---6---6---6---6---6---6---6---6-|----------------------------------|
D|---------------------------------|----------------------------------|
A|-0---0---4---0---0---0---4---0---|---------0---------------0--------|
E|---------------------------------|-2---2-------2---2---2-------2----|

e|---5---5---5---5---5---5---5---5-|
B|---0---0---0---0---0---0---0---0-|
G|---------------------------------|
D|-0---0---4---0---0---0---4---0---|
A|---------------------------------|
E|---------------------------------|

e|-----5-----5-----5-----5-----4-----4-----4-----4---|
B|---2-----2-----2-----2-----3-----3-----3-----3-----|
G|-------2-----------2-----------4-----------4-------|
D|-------------2-----------------------2-------------|
A|---------------------------------------------------|
E|-0-----------------------0-------------------------|

e|-----5-----5-----5-----5-----5-----5-----5-----5-|
B|---2-----2-----2-----2-----2-----2-----2-----2---|
G|-------------------------------------------------|
D|-------------------------------------------------|
A|-0-----0-----4-----0-----0-----0-----4-----0-----|
E|-------------------------------------------------|

e|-----5-----5-----5-----5-----5-----5-----5-----5-|
B|---2-----2-----2-----2-----2-----2-----2-----2---|
G|-------------------------------------------------|
D|-------------------------------------------------|
A|-------------0-----------------------0-----------|
E|-2-----2-----------2-----2-----2-----------2-----|

e|-----5-----5-----5-----2-----5-----5-----5-----2-|
B|---3-----3-----3-----3-----3-----3-----3-----3---|
G|-------------------------------------------------|
D|-0-----0-----4-----0-----0-----0-----4-----0-----|
A|-------------------------------------------------|
E|-------------------------------------------------|

e|-----5-------5-------5-------5-----4-------4-------4-------4-|
B|-----------5---------------------3-------3-------3-------3---|
G|---6---------------6-------6----------4---------------4------|
D|--------7---------------7---------------------2--------------|
A|----------------7--------------------------------------------|
E|-0-----------------------------0-----------------------------|

e|-5-----------------------------|-0----4---5---0-|
B|-2---------------1---2---3---4-|------3---2---0-|
G|-----2---3---4-----------------|------4---2---1-|
D|-----------------------0---1---|-2--------------|
A|-0-0---1---2---3---4-----------|--------0-------|
E|-------------------------------|----0-------0---|

e|-----5---6---7---8---9---10---11-|-12----10----9-----|
B|-2-------------------------------|--------9---10---9-|
G|-2-2---3---4---5---6---7----8----|--9-----9----9---7-|
D|---------------------------------|-----------------9-|
A|-0-------------------------------|----------0--------|
E|---------------------------------|-----0---------0---|

e|-5-0-0-0-4-5-0-0-0-4-|-5-0-0-0-4-5-4-5-4-|----5-----12--|
B|-2-------3-2-------3-|-2-------3-2-3-2-3-|----2------9--|
G|---------------------|-------------------|----2------9--|
D|---------------------|-------------------|--------------|
A|-0---------0---------|-----------0---0---|-0------------|
E|---------0---------0-|-5-------0---0---0-|-------0------|

e|-----9---------|-------------|-------9----|-5---------|
B|----10-----12--|-10----------|------10----|-5---------|
G|-----9------9--|--9----2--2--|-2-----9----|-6---------|
D|-----------12--|-11----2--2--|-2----------|-7---------|
A|---------------|--0----4--4--|-4-----0----|-0---------|
E|-5------0------|-------5--5--|-5----------|-----------|


************************************

| h   Hammer-on
| p   Pull-off

************************************

            
            
Suggest correction
Creating personal tab
Creating personal tab
You can edit any tab online and save it as your Personal.

You can edit, replace or remove any tab part or add personal notes – all changes will be seen only by you.

Personal tabs can be accessed anytime from any device, even offline.
Learn more »
Give kudos to tab author, rate the tab!
1 2 3 4 5
comments
print report bad tab
guest
You may want to rate the tab now too:
select rating
Wanna post a correction for this tab? Suggest correction