Oops, an error
Loading. Please wait.

Lights Down Low tab

version 1
version 1

Whole song

Interactive

by Max
1,828 views 171 this week
3 commentsread comments
1 2 3 4 5
x 7
add to favorites
×
Save as Personal and add changes to this tab that will be seen only by you. Learn more ›
×
You can save this tab as Personal to edit and correct it or add notes. All changes will be seen only by you. Learn more »
launch autoscroll
font size
0
reset
how to read this tab
guitar tuner
edit
Autoscroll
slow
fast
+/-
esc
set tempo
stop
[Intro & Verses]
e|---------2-s--3---s---------3-s--3---s-------------------s-------------------s-|
B|---------3-s--2---s---------0-s--0---s----------3-s--3---s----------3-s--3---s-|
G|------------------s------------------s----------4-s--4---s----------4-s--4---s-|
D|------0----s--0---s------2----s--2---s-------------------s-------------------s-|
A|--0-x-------------s---0-x------------s---0-x-2----s--2---s---0-x-2----s--2---s-|
E|------------------s------------------s-------------------s-------------------s-|

[Pre Chorus]                 
e|----------------s-----------------s------------------s------------------s------|
B|-------3-s--3---s--------2-s--2---s---------3-s--3---s---------3-s--3---s------|
G|-------0-s--0---s--------2-s--2---s---------4-s--4---s---------4-s--4---s------|
D|-------0-s--0---s---2----2-s--2---s---------4-s--4---s---------4-s--4---s------|
A|--2-------------s-----0----s--0---s---0--2----s--2---s---0--2----s--2---s------|
E|----3----s--3---s-----------------s------------------s------------------s------|

[Chorus, Bridge & Outro]          
e|-----0-s--2---s--------2-s-------s---------------------------------------------|
B|-----0-s--3---s--------3-s---2---s---------------------------------------------|
G|--0--0-s--2---s--------4-s---2---s---------------------------------------------|
D|--2--2-s--0---s--------4-s---2---s---------------------------------------------|
A|--2--2-s------s--0--2--2-s---0---s---------------------------------------------|
E|--0--0-s------s----------s-------s---------------------------------------------|
      (^ up stroke)      ^



************************************

| ^   Up Stroke
| s   Slap
| x   Dead Note

************************************

            
            
Suggest correction
Creating personal tab
Creating personal tab
You can edit any tab online and save it as your Personal.

You can edit, replace or remove any tab part or add personal notes – all changes will be seen only by you.

Personal tabs can be accessed anytime from any device, even offline.
Learn more »
comments
print report bad tab
3 comments total.
0 reply
thehappydogpa 20 May 26, 2017 01:31 AM

What does the "dead note" mean?

0 reply
myusedhorizon 133 Jun 05, 2017 08:37 PM

I just mute them right away instead of letting them ring out. I don't think it's the proper way to write it, but palm mute was the only other thing I could think of and that didn't seem right either.

0 reply
thehappydogpa 20 Jun 23, 2017 02:19 AM

Gotcha, thank you!!

guest
You may want to rate the tab now too:
select rating
Wanna post a correction for this tab? Suggest correction