Oops, an error
Loading. Please wait.

Lights Down Low tab

version 1
version 1

Whole song

  • No capo, tab plus tabbed out chords.
  • This tab is made off of the version of the song fe... Show more

Interactive

14,728 views 405 this week
no commentswrite comment
1 2 3 4 5
x 7
add to favorites
×
Save as Personal and add changes to this tab that will be seen only by you. Learn more ›
×
You can save this tab as Personal to edit and correct it or add notes. All changes will be seen only by you. Learn more »
launch autoscroll
font size
0
reset
how to read this tab
guitar tuner
edit
Autoscroll
slow
fast
+/-
esc
set tempo
stop
Author
Difficulty
[Intro]

e|---------------------------------------------------------------------------|
B|----------8--8-----------9---9---------------------------------------------|
G|-------------------------------------------8--8------------8--8------------|
D|---------------------------------------------------------------------------|
A|------6------6-------8-------8-----6---------------6-----------------------|
E|-----------------6/8--------------6---6/8-----8---6---6/8-----8------------|


[Verse]

e|---------------------------------------------------------------------------|
B|----------8--8-----------9---9---------------------------------------------|
G|-------------------------------------------8--8------------8--8------------|
D|---------------------------------------------------------------------------|  x2
A|------6------6-------8-------8-----6---------------6-----------------------|
E|--6h8------------6/8--------------6---6/8-----8---6---6/8-----8------------|

Heaven only knows where you been
But I don't really need to know
I know where you're gonna go
On my heart where
You're resting your head
And you just look so beautiful
Just like you were an Angel


[Pre-Chorus]

e|---------------------------------------------------------------------------|
B|-----------4--4-------------6--6-------------8---8-------------8---8-------|
G|---------------------------------------------------------------------------|
D|---------------------------------------------------------------------------|
A|---------------------------------------------------------------------------|
E|-----3/4------4-------4/6------6-------6/8-------8-------6/8-------8-------|

Can I stop the flow of time
Can I swim in your divine
Cause I don't I think I'd ever
Leave this place


[Chorus]

    Fm             D#        Cm              Bb
e|---------------------------------------------------------------------------|
B|-------------9----8-----------------4------3-------------------------------|
G|------------------8------------------------3-------------------------------|
D|---------10-------8--------------5---------3-------------------------------|  x4
A|---8--------------6--------3---------------1-------------------------------|
E|---------------------------------------------------------------------------|

Oh
Turn the lights, turn the lights
Down low
Yeah
Now I'm feeling you, breathing slow
Cause baby we're just reckless kids
Trying to find an island in the flood
Oh
Just turn the lights, turn the lights
Down low oh


[Verse]

e|---------------------------------------------------------------------------|
B|----------8--8-----------9---9---------------------------------------------|
G|-------------------------------------------8--8------------8--8------------|
D|---------------------------------------------------------------------------|  x2
A|------6------6-------8-------8-----6---------------6-----------------------|
E|--6h8------------6/8--------------6---6/8-----8---6---6/8-----8------------|

Under heavy skies in the rain
You're dancing
In your bare feet
Just like we're in a movie
Grab my hand and we're chasing the train
I catch you looking back at me
Running through a cloud of steam


[Pre-Chorus]

e|---------------------------------------------------------------------------|
B|-----------4--4-------------6--6-------------8---8-------------8---8-------|
G|---------------------------------------------------------------------------|
D|---------------------------------------------------------------------------|
A|---------------------------------------------------------------------------|
E|-----3/4------4-------4/6------6-------6/8-------8-------6/8-------8-------|

Can I stop the flow of time
Can I swim in your divine
Cause I don't I think I'd ever
Leave this place


[Chorus]

    Fm             D#        Cm              Bb
e|---------------------------------------------------------------------------|
B|-------------9----8-----------------4------3-------------------------------|
G|------------------8------------------------3-------------------------------|
D|---------10-------8--------------5---------3-------------------------------|  x6
A|---8--------------6--------3---------------1-------------------------------|
E|---------------------------------------------------------------------------|

Oh
Turn the lights, turn the lights
Down low
Yeah
Now I'm feeling you, breathing slow
Cause baby we're just reckless kids
Trying to find an island in the flood
Oh
Just turn the lights, turn the lights
Down low oh


[Bridge]

Fm          D#
And I would give you everything baby
Cm                Bb
Can you feel this energy take it
Fm               D#               Cm           Bb
You can have the best me baby, now
Fm          D#                  
And I would give you anything
Cm                Bb
Can you feel this energy take it
Fm               D#               Cm           Bb
You can have the best of me baby, now


[Chorus]

    Fm             D#        Cm              Bb
e|---------------------------------------------------------------------------|
B|-------------9----8-----------------4------3-------------------------------|
G|------------------8------------------------3-------------------------------|
D|---------10-------8--------------5---------3-------------------------------|  x8
A|---8--------------6--------3---------------1-------------------------------|
E|---------------------------------------------------------------------------|

Oh
Turn the lights, turn the lights
Down low
Yeah
Now I'm feeling you, breathing slow
Oh
Turn the lights, turn the lights
Down low oh
Yeah
Now I'm feeling you, breathing slow
Cause baby
We're just reckless kids trying to find an island in the flood
Oh
Turn the lights, turn the lights
Down low
Ooh oh
Turn the lights, turn the lights
Down low
Ooh oh
Turn the lights, turn the lights
Down low
 

************************************
| h   Hammer-on
| /   Slide up
************************************

            
            
Suggest correction
Creating personal tab
Creating personal tab
You can edit any tab online and save it as your Personal.

You can edit, replace or remove any tab part or add personal notes – all changes will be seen only by you.

Personal tabs can be accessed anytime from any device, even offline.
Learn more »
comments
print report bad tab
guest
You may want to rate the tab now too:
select rating
Wanna post a correction for this tab? Suggest correction