Oops, an error
Loading. Please wait.

Take The Weight Off bass

by Maxeen
196 views 1 this week
no commentswrite comment
1 2 3 4 5
2 more votes to show rating
add to favorites
×
Save as Personal and add changes to this tab that will be seen only by you. Learn more ›
×
You can save this tab as Personal to edit and correct it or add notes. All changes will be seen only by you. Learn more »
launch autoscroll
font size
0
reset
guitar tuner
edit
Autoscroll
slow
fast
+/-
esc
set tempo
stop
Author
Difficulty
Maxeen - Take the weight off

bass tab

by : doky 2007
taquilleros_de_sudamerica_maroyu_el_grupo_tropical_del_momento@hotmail.com

5-stringed bass
G D A E B

   INTRO/BREAK 1
G-|-------------------------------|
D-|-------------------------------|
A-|-10-10-10-10-10-10-10-10-10-10-|
E-|-------------------------------|
B-|-------------------------------|
                                                                              

   VERSO
G-|----------------------------------------------|
D-|----------------------------------------------|
A-|-10-10-10-10-10-8-8-8-8-8-6-6-6-6-6-8-8-8-8-8-|
E-|----------------------------------------------|
B-|----------------------------------------------|
                                                                              

   BREAK 2
G-|-------------------------------------------------------------|
D-|-------------------------------------------------------------|
A-|-10-10-10-10-10-10-10-10-10-10-----------8-8-8-8-8-6-6-6-6-6-|
E-|-------------------------------------------------------------|
B-|-------------------------------8-8-8-8-8---------------------|
                                                                              

   BREAK 3
G-|-------------|--------------------------------------------------------|
D-|-------------|--------------------------------------------------------|
A-|-------------|--------------------------8-10----------------8-10-8----|
E-|-------------|---------------------8-10----------------8-10--------10-|
B-|-------------|-8-8-8-8-8-8-8-8-8-8-----------8-8-8-8-8----------------|
   = break 1 +                                                                


G-|-------------------------|
D-|-------10-10-------10-10-|
A-|-10-10-------10-10-------|
E-|-------------------------|
B-|-------------------------|
                                                                              
Mando salutaciones a la Wayra Paz del QB 2004 que era bien tara y un dia le
hemos dado el tambor para que toque pero no ha tocado hasta que se rompa sino
asi no mas ha tocado y era lider del sindicato de estudiantes de QB 2004.

doky2007

            
            
Suggest correction
Creating personal tab
Creating personal tab
You can edit any tab online and save it as your Personal.

You can edit, replace or remove any tab part or add personal notes – all changes will be seen only by you.

Personal tabs can be accessed anytime from any device, even offline.
Learn more »
Give kudos to tab author, rate the tab!
1 2 3 4 5
comments
print report bad tab
guest
You may want to rate the tab now too:
select rating
Wanna post a correction for this tab? Suggest correction