Oops, an error
Loading. Please wait.

Akagi bass

6,754 views 6 this week
1 commentread comment
1 2 3 4 5
2 more votes to show rating
add to favorites
×
Save as Personal and add changes to this tab that will be seen only by you. Learn more ›
×
You can save this tab as Personal to edit and correct it or add notes. All changes will be seen only by you. Learn more »
launch autoscroll
font size
0
reset
guitar tuner
edit
Autoscroll
slow
fast
+/-
esc
set tempo
stop
Author
Akagi by Maximum the Hormone
Bass tab by J (MtH2112)
Email at lfsiii12 @ hotmail.com for comments, changes, etc.
I simplified this tab some.

/ = slide up

G|-------------|-------------|-----------------|---------|
D|-------------|-------------|-----------------|---------|
A|-----1-------|---------1---|-----------------|-1-------|
E|-3-----------|-0---1-------|-0-------1-------|---------|

G|-----------------|--------------|-----------------|
D|-----------------|--------------|-----------------|
A|-----------------|-1------------|-----------------|
E|-0-------1-------|----------3-3-|-0-------1-------|

G|--------------------|-----------------|
D|--------------------|-----------------|
A|--------------------|-----------------|
E|-3---3---3----1-1-1-|-3---3---1-------|
                    x3

G|-----------------------------|-----------------------------|
D|-----------------------------|-----------------------------|
A|--------1-1--1-3-3--3-4-4--4-|--------1-1--1-3-3--3--------|
E|-3-3--3----------------------|-3-3--3---------------1-1--1-|

G|-----------------------------|---------------------------|
D|-----------------------------|---------------------------|
A|--------1-1--1-3-3--3-4-4--4-|--------1-1--1-3-3--3------|
E|-3-3--3----------------------|-3-3--3---------------1-1--|

G|---------------------5-3-|-------------------------|
D|---3-5---5-3---3-5-------|---3-5---5-3---3---------|
A|-0-----0-----0-----0-----|-0-----0-----0-----------|
E|-------------------------|-----------------3-3-3-3-|
                         x3

G|-------------|-------------|-15---14----------------------|
D|-------------|-------------|-----------15---12-15---------|
A|-------------|-1-1---------|------------------------------|
E|-0-0---1-1---|-------3-3---|----------------------0---1---|
                           x2

G|--------------------|-----------------|
D|--------------------|-----------------|
A|--------------------|-----------------|
E|-3---3---3----1-1-1-|-3---3---1-------|
                    x3

G|-----------------------------|-----------------------------|
D|-----------------------------|-----------------------------|
A|--------1-1--1-3-3--3-4-4--4-|--------1-1--1-3-3--3--------|
E|-3-3--3----------------------|-3-3--3---------------1-1--1-|

G|-----------------------------|---------------------------|
D|-----------------------------|---------------------------|
A|--------1-1--1-3-3--3-4-4--4-|--------1-1--1-3-3--3------|
E|-3-3--3----------------------|-3-3--3---------------1-1--|

G|---------------------5-3-|-------------------------|
D|---3-5---5-3---3-5-------|---3-5---5-3---3---------|
A|-0-----0-----0-----0-----|-0-----0-----0-----------|
E|-------------------------|-----------------3-------|
                         x3

PLEASE tell me what you think of the following.

G|-----------------------|------------------------|
D|-----------------------|------------------------|
A|-----------------------|----------------------1-|
E|-3---/18-15-3---/18-15-|-3---/18-15-3---3-1-3---|
                                                x3

G|-----------------------|------------------------|
D|-----------------------|------------------------|
A|-----------------------|------------------1-3-1-|
E|-3---/18-15-3---/18-15-|-3---/18-15-3-1-3-------|

I believe the following is just a bit different than the other
parts like this. I think it is 4 beats/measure instead of 3 here.

G|---------------------5-3-|-------------------------|
D|---3-5---5-3---3-5-------|---3-5---5-3---3---------|
A|-0-----0-----0-----0-----|-0-----0-----0-----------|
E|-------------------------|-----------------3-3-3-3-|
                         x3

G|-------------|-------------|
D|-------------|-------------|
A|-------------|-1-1---------|
E|-0-----1-----|-------3-----|

G|-------------|-------------|-15---14----------------------|
D|-------------|-------------|-----------15---12-15---------|
A|-------------|-1-1---------|------------------------------|
E|-0-0---1-1---|-------3-3---|----------------------0---1---|

G|-------------------------|---------|-------0-------b-|-----|
D|-------------------------|---------|-----3---3-----u-|-----|
A|-------------------------|---------|---1-----------r-|-----|
E|-3-0-1-3-0-1-3-0-1-3-0-4-|-3---3---|-3---------1-3-p-|-3---|
                         x2

            
            
Suggest correction
Creating personal tab
Creating personal tab
You can edit any tab online and save it as your Personal.

You can edit, replace or remove any tab part or add personal notes – all changes will be seen only by you.

Personal tabs can be accessed anytime from any device, even offline.
Learn more »
Give kudos to tab author, rate the tab!
1 2 3 4 5
comments
print report bad tab
1 comment total.
0 reply
B.C.RichRulz 331 Mar 06, 2012 12:37 PM

G|----3-0-----3-0-|----3-0------------|
D|----------------|-------------------|
A|----------------|-----------------1-|
E|-3-------3------|-3--------3-1-3----|

This is a lot easier to play, same notes but no rediculous slides. :)

guest
You may want to rate the tab now too:
select rating
Wanna post a correction for this tab? Suggest correction