Oops, an error
Loading. Please wait.

Chu Chu Lovely Muni Muni Mura Mura Purin Purin Boron Nururu Rero Rero bass

version 1
version 1

Whole song

Interactive

7,167 views 1 this week
no commentswrite comment
1 2 3 4 5
2 more votes to show rating
add to favorites
×
Save as Personal and add changes to this tab that will be seen only by you. Learn more ›
×
You can save this tab as Personal to edit and correct it or add notes. All changes will be seen only by you. Learn more »
launch autoscroll
font size
0
reset
guitar tuner
backing track
0:00
0:00
edit
Autoscroll
slow
fast
+/-
esc
set tempo
stop
Author
Chu Chu Lovely Muni Muni Mura Mura
Purin Purin Boron Nurururerero
by Maximum the Hormone
Bass tab by J (MtH2112)
Email at lfsiii12 @ hotmail.com for comments, changes, etc.
Everything except for the first slapping part seems
good to me.

     h       e e s s e e s e s e   e e s s e E E e x4
G|-----|-------------------------|------------------|
D|2:-R-|4:-*-1-1-1-1-1-----------|-------------0-3-*|
A|4:---|4:-*-----------3-3-3-3-1-|-----------1-----*|
E|-----|-------------------------|-4-4-4-4-4--------|

Verse

    e E E e E E   e E E e e e e x2
G|--------------|----------------|
D|*---R-----R---|---R---------3-*|
A|*-6---4-6---4-|-6---4-6---4---*|
E|--------------|---------6------|

    s e s s e s s e s s e s   s e s s e s e e e e x2
G|--------------------------|----------------------|
D|*-------------------------|-------------------3-*|
A|*-6-6-6-4-4-4-6-6-6-4-4-4-|-6-6-6-4-4-4-6---4---*|
E|--------------------------|---------------6------|

   e H e   e e H   e e H   e e q E E e
G|-------|-------|-------|-------------|
D|---R-R-|-----R-|-----R-|-----R-------|
A|-1-----|-1-1---|-1-1---|-1-1---1-3-4-|
E|-------|-------|-------|-------------|

    e e s s e s s s s s s s s   e e s s e e s e s e x2
G|------1h3---3-----------1h3-|-----1h3--------------|
D|*-----------------3---------|---------------------*|
A|*-1-1-----3---3p1-----------|-1-1-----3-1-x-3-x-4-*|
E|--------------------3p1-----|----------------------|
    T T P   T P T   P T   P     T T P   T T T T T T

    e e s s s s e e s s s s   e e s s s s e s e s e x3
G|--------3---3-------3---3-|-------3---3------------|
D|*-------------------------|-----------------------*|
A|*-1-1-x---x---1-1-x---x---|-1-1-x---x---1-x-3-x-4-*|
E|--------------------------|------------------------|
    T T T P T P T T T P T P   T T T P T P T T T T T

   e e s s s s e e s s s s   e e s s s s e e e e
G|-------3---3-------3---3-|-------3---3---------|
D|-------------------------|---------------------|
A|-1-1-x---x---1-1-x---x---|-1-1-x---x---1-2-3-4-|
E|-------------------------|---------------------|
   T T T P T P T T T P T P   T T T P T P

End of Verse

   h h   h E E e   E E e E E e   E E e E E e
G|-----|---------|---0-3-----0-|-1-0-1-3---3-|
D|-1---|-----0-3-|-1-------1---|---------3---|
A|---3-|---1-----|-------3-----|-------------|
E|-----|-4-------|-------------|-------------|

    e e s s e e s e s e   e e s s e E E e x2
G|----------------------|------------------|
D|*-1-1-1-1-1-----------|-------------0-3-*|
A|*-----------3-3-3-3-1-|-----------1-----*|
E|----------------------|-4-4-4-4-4--------|

Repeat Verse

   h h   h E E e   E E e E E e   E E e E Q
G|-----|---------|---0-3-----0-|-1-0-1-3---|
D|-1---|-----0-3-|-1-------1---|---------R-|
A|---3-|---1-----|-------3-----|-----------|
E|-----|-4-------|-------------|-----------|

    e e s s e e s e s e   e e s s e E E e x2
G|----------------------|------------------|
D|*-1-1-1-1-1-----------|-------------0-3-*|
A|*-----------3-3-3-3-1-|-----------1-----*|
E|----------------------|-4-4-4-4-4--------|

   H q   H e e    e e e e e e e e   e e e e e e e e x2
G|-----|-------|------------------|------------------|
D|-1---|-----R-|*-----8-------5---|-------------0-3-*|
A|---1/|-6-1---|*-6-6---6-3-3---3-|-----6---1-1-----*|
E|-----|-------|------------------|-4-4---4----------|

   E E e E E e   E E e E E e   E E e E E e   E E e E E e
G|---0-3-----0-|-1-0-1-3---3-|---0-3-5-3---|-1-0-1-3---3-|
D|-1-------1---|---------3---|-1---------3-|---------3---|
A|-------3-----|-------------|-------------|-------------|
E|-------------|-------------|-------------|-------------|

   h h   h h   h h   h  E E e   h h   h h   h h   h s s s s s E
G|-----|-----|-----|----------|-----|-----|-----|---------------|
D|-----|-1---|-----|-1--------|-----|-1-0-|-----|-1-1-1-1-1-1-R-|
A|---1-|---3-|---1-|------6---|-----|-----|---1-|---------------|
E|-4---|-----|-4---|---/6---6-|-4-3-|-----|-4---|---------------|

    e e s s e e s e s e   e e s s e E E e x4 e H e
G|----------------------|------------------|-------|
D|*-1-1-1-1-1-----------|-------------0-3-*|-1-R-R-|
A|*-----------3-3-3-3-1-|-----------1-----*|-------|
E|----------------------|-4-4-4-4-4--------|-------|


Key___

w = whole            / = slide up
h = half             h = hammer-on
q = quarter          p = pull-off
e = eighth           T = tap / slap (under measures)
s = sixteenth        P = pop / pluck (under measures)

Capitals = dotted

R = Rest

      x#
G|-----|
D|*---*| = Repeat measure(s) by the number given above
A|*---*|
E|-----|

2:                           4:
4: = 2 beats per measure     4: = 4 beats per measure

            
            
Suggest correction
Creating personal tab
Creating personal tab
You can edit any tab online and save it as your Personal.

You can edit, replace or remove any tab part or add personal notes – all changes will be seen only by you.

Personal tabs can be accessed anytime from any device, even offline.
Learn more »
Give kudos to tab author, rate the tab!
1 2 3 4 5
comments
print report bad tab
guest
You may want to rate the tab now too:
select rating
Wanna post a correction for this tab? Suggest correction