Oops, an error
Loading. Please wait.

F bass

version 1
version 1

Whole song

Interactive

7,092 views 3 this week
no commentswrite comment
1 2 3 4 5
1 last vote to show rating
add to favorites
×
Save as Personal and add changes to this tab that will be seen only by you. Learn more ›
×
You can save this tab as Personal to edit and correct it or add notes. All changes will be seen only by you. Learn more »
launch autoscroll
font size
0
reset
guitar tuner
edit
Autoscroll
slow
fast
+/-
esc
set tempo
stop
I did this one by ear too, but I'm pretty sure it's all 100% accurate 
Well the song is played in Drop C tuning :P

Enjoy!


Intro
|---------------------------|
|---------------------------|
|---------------------------| x2
|--5--6-5--5-5--5-0-0-3-3---|

|---------------------------|
|---------------------------|
|---------------------------| x2
|--5~~6~5~~5~5~~5~0~0~3~3~~-|

|----------------------------------------------|
|-----5---5-------5---5-------5---5------------|
|----------------------------------------------| X4
|-5-x---x---6-5-x---x---6-5-x---x---5-0-0-3-3--|
  S S P S P S S S P S P S S S P S P S S S S S                        

Verse 1
|----------------------------------------|
|----------------------------------------|
|---------------------/10~~~~~~~~~~~~~~~-|
|--5~~~~~~~~~~~~~~~~~~-------------------|


|----------------------------------------------|
|------------------------------------10-11-12--|
|----------/10~~~~~~----------/10-13-----------|
|--5~~~~~~~---------5~~~~~~~~~-----------------|

Breakdown x2
|-------------------------------------|
|-------------------------------------|
|-------------------------------------| 
|--0-1h0--0-1h0-0-1h0-0-1h0-0-1h3-----|

|-------------------------------------|
|-------------------------------------|
|-------------------------------------| 
|--0-1h0--0-1h0-0-1h0-0-1h0-0-1h3-----|

|-------------------------------------|
|-------------------------------------|
|-------------------------------------| 
|--0-1h0--0-1h0-0-1h0-0-1h0-0-1h3-----|

|-------------------------------------|
|-------------------------------------|
|-------------------------------------| 
|--0-1h0--0-1h0-0-1~~~~~~~3~~~~~~~----|

Slap part :P
|-------3---2-----------------3---2---5---2--|
|--5------------3---5~~~--5------------------|
|--------------------------------------------|
|----x----x---x---x---------x---x---x---x----|
   P S  P S P S P S P     P S P S P S P S P 

|------3---2-----------------3--------------|
|--5-----------3---5~~~--5--------5555-3h5--|
|-------------------------------------------|
|----x---x---x---x---------x----------------|                    
   P S P S P S P S P     P S P                             

|-------3---2-----------------3---2---5---2--|
|--5------------3---5~~~--5------------------|
|--------------------------------------------|
|----x----x---x---x---------x---x---x---x----|
   P S  P S P S P S P     P S P S P S P S P 

|------3---2---------------------------------|
|--5-----------3---5~~~------------10-11-12--|
|--------------------------/10--13-----------|
|----x---x---x---x---------------------------|                    
   P S P S P S P S P          

Breakdown 
|-------------------------------------|
|-------------------------------------|
|-------------------------------------| x4
|--0-1h0--0-1h0-0-1h0-0-1h0-0-1h3-----|


|-------------------------------------|
|--0-1h0--0-1h0-0-1h0-0-1h0-0-1h3-----|
|-------------------------------------| x3 
|-------------------------------------|

|-------------------------------------|
|--0-1h0--0-1h0-0-1~~~~~~~~3~~~~~~~---|
|-------------------------------------| 
|-------------------------------------|

Chorus
|------------------------------------------------|
|------------------------------------------------|
|------------------1-1111-1-1111-3-3333-3-3333---|
|--5--5555-5--5555-------------------------------|

|--------------------------|
|-----------3--3333--------|
|--6--6666-----------------|
|--------------------------|

|-----------------------------------------------|
|-----------------------------------------------|
|------------------1-1111-1-1111----------------|
|--5--5555-5--5555---------------3-3333--3-3333-|

|-----------------------------------------|
|-----------------------------------------|
|-----------------------------------------|
|--1-1-----3~~~~~~~--55555555--3--4-------|

|---------------------------------------------|
|---------------------------------------------|
|---------------------------------------------|
|--55555555--3--4--55555555--3--4--555555555--|

Verse 1
|----------------------------------------|
|----------------------------------------|
|---------------------/10~~~~~~~~~~~~~~~-|
|--5~~~~~~~~~~~~~~~~~~-------------------|


|----------------------------------------------|
|------------------------------------10-11-12--|
|----------/10~~~~~~----------/10-13-----------|
|--5~~~~~~~---------5~~~~~~~~~-----------------|

Breakdown x2
|-------------------------------------|
|-------------------------------------|
|-------------------------------------| 
|--0-1h0--0-1h0-0-1h0-0-1h0-0-1h3-----|

|-------------------------------------|
|-------------------------------------|
|-------------------------------------| 
|--0-1h0--0-1h0-0-1h0-0-1h0-0-1h3-----|

|-------------------------------------|
|-------------------------------------|
|-------------------------------------| 
|--0-1h0--0-1h0-0-1h0-0-1h0-0-1h3-----|

|-------------------------------------|
|-------------------------------------|
|-------------------------------------| 
|--0-1h0--0-1h0-0-1~~~~~~~3~~~~~~~----|

Slap part :P
|-------3---2-----------------3---2---5---2--|
|--5------------3---5~~~--5------------------|
|--------------------------------------------|
|----x----x---x---x---------x---x---x---x----|
   P S  P S P S P S P     P S P S P S P S P 

|------3---2-----------------3--------------|
|--5-----------3---5~~~--5--------5555-3h5--|
|-------------------------------------------|
|----x---x---x---x---------x----------------|                    
   P S P S P S P S P     P S P                             

|-------3---2-----------------3---2---5---2--|
|--5------------3---5~~~--5------------------|
|--------------------------------------------|
|----x----x---x---x---------x---x---x---x----|
   P S  P S P S P S P     P S P S P S P S P 

|------3---2---------------------------------|
|--5-----------3---5~~~------------10-11-12--|
|--------------------------/10--13-----------|
|----x---x---x---x---------------------------|                    
   P S P S P S P S P          

Breakdown 
|-------------------------------------|
|-------------------------------------|
|-------------------------------------| x4
|--0-1h0--0-1h0-0-1h0-0-1h0-0-1h3-----|


|-------------------------------------|
|--0-1h0--0-1h0-0-1h0-0-1h0-0-1h3-----|
|-------------------------------------| x3 
|-------------------------------------|

|-------------------------------------|
|--0-1h0--0-1h0-0-1~~~~~~~~3~~~~~~~---|
|-------------------------------------| 
|-------------------------------------|

Chorus
|------------------------------------------------|
|------------------------------------------------|
|------------------1-1111-1-1111-3-3333-3-3333---|
|--5--5555-5--5555-------------------------------|

|--------------------------|
|-----------3--3333--------|
|--6--6666-----------------|
|--------------------------|

|-----------------------------------------------|
|-----------------------------------------------|
|------------------1-1111-1-1111----------------|
|--5--5555-5--5555---------------3-3333--3-3333-|

|-----------------------------------------|
|-----------------------------------------|
|-----------------------------------------|
|--1-1-----3~~~~~~~--55555555--3--4-------|

|---------------------------------------------|
|---------------------------------------------|
|---------------------------------------------|
|--55555555--3--4--55555555--3--4--555555555--|

Solo part
|------------------------------------------------|
|------------------------------------------------|
|------------------1-1111-1-1111-3-3333-3-3333---|
|--5--5555-5--5555-------------------------------|

|--------------------------|
|-----------3--3333--------|
|--6--6666-----------------|
|--------------------------|

|-----------------------------------------------|
|-----------------------------------------------|
|------------------1-1111-1-1111----------------|
|--5--5555-5--5555---------------3-3333--3-3333-|

|-----------------------------------------------|
|-----------------------------------------------|
|-----------------------------------------------|
|--1-1-----3~~~~~~~--0-0-0-0-0-0-0-0-0-0-0-0----|

|---------------------------------------------|
|---------------------------------------------|
|--/5-5-5-5-5-5-------------------------------|
|---------------0-0-0--1~~~~~~~~3~~~~~~~~-----|

Build up part
|---------------------------------------|
|-------------------------------3~~~~---|
|-----------1~~~~~~3~~~~~~~6~~~~--------|
|--5~~~~~~------------------------------|

|-------------------------------------------------------|
|-------------------------------------------------------|
|------------------1-111-111-111-11---------------------|
|-5-555-555-555-55------------------3-333-333-333-333-3-|


|---------------------|
|---------------------|
|---------------------|
|--1-1---3~~~~~~~-----|

Chorus
|------------------------------------------------|
|------------------------------------------------|
|------------------1-1111-1-1111-3-3333-3-3333---|
|--5--5555-5--5555-------------------------------|

|--------------------------|
|-----------3--3333--------|
|--6--6666-----------------|
|--------------------------|

|-----------------------------------------------|
|-----------------------------------------------|
|------------------1-1111-1-1111----------------|
|--5--5555-5--5555---------------3-3333--3-3333-|

|---------------------------|
|---------------------------|
|---------------------------|
|--1-1-----3~~~~~~~---------|

Intro
|---------------------------|
|---------------------------|
|---------------------------| x2
|--5--6-5--5-5--5-0-0-3-3---|

|----------------------------------------------|
|-----5---5-------5---5-------5---5------------|
|----------------------------------------------| X6
|-5-x---x---6-5-x---x---6-5-x---x---5-0-0-3-3--|
  S S P S P S S S P S P S S S P S P S S S S S                        
End
|---------------------|
|---------------------|
|---------------------|
|--5~~~~~~~~~~~~~-----|

            
            
Suggest correction
Creating personal tab
Creating personal tab
You can edit any tab online and save it as your Personal.

You can edit, replace or remove any tab part or add personal notes – all changes will be seen only by you.

Personal tabs can be accessed anytime from any device, even offline.
Learn more »
Give kudos to tab author, rate the tab!
1 2 3 4 5
comments
print report bad tab
guest
You may want to rate the tab now too:
select rating
Wanna post a correction for this tab? Suggest correction