Oops, an error
Loading. Please wait.

Houchou Hasami Cutter Knife Dosu Kiri bass

version 1
version 1

Whole song

Interactive

2,972 views 1 this week
2 commentsread comments
1 2 3 4 5
1 last vote to show rating
add to favorites
×
Save as Personal and add changes to this tab that will be seen only by you. Learn more ›
×
You can save this tab as Personal to edit and correct it or add notes. All changes will be seen only by you. Learn more »
launch autoscroll
font size
0
reset
guitar tuner
edit
Autoscroll
slow
fast
+/-
esc
set tempo
stop
This is my very first tab, so it might be some mistakes, although i'm pretty sure about 
tab.

Enjoy it.


STANDARD TUNE: E,A,D,G


INTRO

--------------------------------------------|
--------------------------------------------|
-----1-222-----1----------1-222-----1-------|
-1-4-------1-4----000-1-4-------1-4---000---|

PART 1

------------------|
------------------|
------------------|
-1--1--1--44--66--|    x4

PART 2

----------------------|
----------------------|
-33333333---111-------|
----------------------|

----------------------|
----------------------|
-33333333---444-------|
----------------------|

----------------------|
----------------------|
-33333333---111-------|
----------------------|

-----------------|
-----------------|
-33333333-4-3----|
-----------------|

PART 3

-------------------------------------------|
-------------------------------------------|
------------------------------4444--3333---|
-11111111-44444444--66666666---------------|

---------------------------------|
---------------------------------|
------------------------4-3------|
-11111111-44444444--6--------1---|

INTRO

--------------------------------------------|
--------------------------------------------|
-----1-222-----1----------1-222-----1-------|
-1-4-------1-4----000-1-4-------1-4---000---|

PART 1

------------------|
------------------|
------------------|
-1--1--1--44--66--|    x4

PART 2

----------------------|
----------------------|
-33333333---111-------|
----------------------|

----------------------|
----------------------|
-33333333---444-------|
----------------------|

----------------------|
----------------------|
-33333333---111-------|
----------------------|

-----------------|
-----------------|
-33333333-4-3----|
-----------------|

PART 3

-------------------------------------------|
-------------------------------------------|
------------------------------4444--3333---|
-11111111-44444444--66666666---------------|

---------------------------------|
---------------------------------|
------------------------4-3------|
-11111111-44444444--6--------1---|

PRE SOLO

----------------------|
-3--3--3--1-3333-33---|
----------------------|
----------------------|

BASS SOLO

----------------------------|
----------------------------|
------------411---144--33---|
-11---144-------------------| x12


-----------------|
-----------------|
3--3--3--111-3---|
-----------------|

-----------------|
-----------------|
3--3--3--444-----|
-----------------|

OUTRO

-------------------|
-------------------|
-33333333-111------|
-------------------|

-------------------|
-------------------|
-33333333-4-3------|
-------------------|

PART 4

------------------------------------|
------------------------------------|
----------------------4-3-----------|
-1--11144--44466--666---------------| x2

PART 3

-------------------------------------------|
-------------------------------------------|
------------------------------4444--3333---|
-11111111-44444444--66666666---------------|

---------------------------------|
---------------------------------|
------------------------4-3------|
-11111111-44444444--6--------1---|

            
            
Suggest correction
Creating personal tab
Creating personal tab
You can edit any tab online and save it as your Personal.

You can edit, replace or remove any tab part or add personal notes – all changes will be seen only by you.

Personal tabs can be accessed anytime from any device, even offline.
Learn more »
Give kudos to tab author, rate the tab!
1 2 3 4 5
comments
print report bad tab
2 comments total.
0 reply
jetulioh 10 Dec 19, 2013 02:51 PM

just correcting the bass solo

BASS SOLO

----------------------------|
----------------------------|
-------------11---144--33---|
-11---144---4---------------| x12

0 reply
jetulioh 10 Dec 20, 2013 12:40 AM

bass solo

----------------------------|
----------------------------|
-------------11---144--33---|
-11---144---4---------------| x7

----------------------------|
------------------------3---|
-------------11---144--3----|
-11---144---4---------------| x4

----------------------------|
----------------------------|
-------------11---144--33---|
-11---144---4---------------| x1

guest
Wanna post a correction for this tab? Suggest correction