Oops, an error
Loading. Please wait.

Koi No Mega-Lover bass

version 1
version 1

Whole song

Interactive

13,255 views 3 this week
3 commentsread comments
1 2 3 4 5
x 5
add to favorites
×
Save as Personal and add changes to this tab that will be seen only by you. Learn more ›
×
You can save this tab as Personal to edit and correct it or add notes. All changes will be seen only by you. Learn more »
launch autoscroll
font size
0
reset
guitar tuner
edit
Autoscroll
slow
fast
+/-
esc
set tempo
stop
Author
Koi no Mega Lover by Maximum the Hormone
Bass tab by J (MtH2112)
Email at lfsiii12 @ hotmail.com for comments, changes, etc.
This song is played in a whole step down Drop C: F (two fret lower),
C (two fret lower), G (two frets lower), C (four frets lower)
If you would like a Power Tab of this song (bass only), email me.

    e e H   h e e e e x2 e e e e e e e e   e e e e e e e e
F|--------|------------|-----------------|-----------------|
C|*-----R-|-R-R-------*|-----------------|-----------------|
G|*-3-3---|-----1-1-2-*|-3-3-3-3-3-3-3-3-|-3-3-3-3-3-1-1-2-|
C|--------|------------|-----------------|-----------------|

   e e e e e e e e   e e e e e e q
F|-----------------|---------------|
C|-----------------|-----------R---|
G|-3-3-3-3-3-3-3-3-|-3-3-3-3-3---3-|
C|-----------------|---------------|

    e e q e e e e   e e e e e e e e   e e q e e e e   e e e e e e e e
F|----------5-----|-----5-----------|---------5-----|-----5-----------|
C|*---R---------3-|-R-3---3---------|---R---------3-|-R-3---3---------|
G|*-1---1-3---3---|---------5-5-5-0-|-1---1-3---3---|---------5-5-5-0-|
C|----------------|-----------------|---------------|-----------------|

   e e q e e e e   e e e e e e e e   e e q e e e e  +e e e e e e e e
F|---------5-----|-----5-----------|---------5-----|-----------------|
C|---R---------3-|-R-3---3---------|---R---------3-|-3-3-3-3-2-3-3---|
G|-1---1-3---3---|---------5-5-5-0-|-1---1-3---3---|---------------3-|
C|---------------|-----------------|---------------|-----------------|

   e e q e e e e   e e e e e e e e   e e q e e e e   e e e e e e e e
F|---------5-----|-----5-----------|---------5-----|-----5-----------|
C|---R---------3-|-R-3---3---------|---R---------3-|-R-3---3---------|
G|-1---1-3---3---|---------5-5-5-0-|-1---1-3---3---|---------5-5-5-0-|
C|---------------|-----------------|---------------|-----------------|

   e e q e e e e   e e e e e e e e   e e q e e e e  +e e e e e e e e
F|---------5-----|-----5-----------|---------5-----|-----------------|
C|---R---------3-|-R-3---3---------|---R---------3-|-3-3-3-3-2-3-3---|
G|-1---1-3---3---|---------5-5-5-0-|-1---1-3---3---|---------------3-|
C|---------------|-----------------|---------------|-----------------|

   q e q q e  +e q q e e e   q e q q e  +e q q e e e
F|-----------|-------------|-----------|-------------|
C|-----------|-------------|-----------|-------------|
G|-----------|-------------|-----------|-------------|
C|-0-3-0-3-0-|-0-3-0-3-5-6-|-0-3-0-3-0-|-0-3-0-3-5-6-|

   q e q q e  +e q q e e e   q e q q e  +e q q e e e
F|-----------|-------------|-----------|-------------|
C|-----------|-------------|-----------|-------------|
G|-----------|-------------|-----------|-------------|
C|-0-3-0-3-0-|-0-3-0-3-5-6-|-0-3-0-3-0-|-0-3-0-3-5-6-|

   e Q e e e e  +e e q e e e e  +e e q e e e e  +e e e e e e e e
F|-------------|---------------|---------------|-----------------|
C|---R---------|-----R---------|-----R---------|-----------------|
G|-------------|---------------|---------------|-----------------|
C|-0---6-5-3-0-|-0-0---6-5-3-0-|-0-0---6-5-3-0-|-0-0-3-0-3-5-6-0-|

  +e e q e e e e  +e e q e e e e  +e e q e e e e  +e e e e e e e e
F|---------------|---------------|---------------|-----------------|
C|-----R---------|-----R---------|-----R---------|---------------R-|
G|---------------|---------------|---------------|-----------------|
C|-0-0---6-5-3-0-|-0-0---6-5-3-0-|-0-0---6-5-3-0-|-0-0-3-0-3-5-6---|

   q e e e e e e  +e e e e e e e e  +e e e e e e e e  +e e e q e e e
F|---------------|-----------------|-----------------|---------------|
C|---------------|-----------------|-----------------|---------------|
G|---------------|-----------------|-----------------|---------------|
C|-0-3-0-3-5-6-0-|-0-0-3-0-3-5-6-0-|-0-0-3-0-3-5-6-6-|-6-5-3-6-5-3-0-|

  +q e e e e e e  +e e e e e e e e  +e e e e e e e e  +e e e q e e e
F|---------------|-----------------|-----------------|---------------|
C|---------------|-----------------|-----------------|---------------|
G|---------------|-----------------|-----------------|---------------|
C|-0-3-0-3-5-6-0-|-0-0-3-0-3-5-6-0-|-0-0-3-0-3-5-6-6-|-6-5-3-6-5-3-0-|

  +e e q e e e e  +e e q e e e e  +e e q e e e e  +e e e e e e e e
F|---------------|---------------|---------------|-----------------|
C|-----R---------|-----R---------|-----R---------|-----------------|
G|---------------|---------------|---------------|-----------------|
C|-0-0---6-5-3-0-|-0-0---6-5-3-0-|-0-0---6-5-3-0-|-0-0-3-0-3-5-6-0-|

  +e e q e e e e  +e e q e e e e  +e e q e e e e  +e e e e e e e e
F|---------------|---------------|---------------|-----------------|
C|-----R---------|-----R---------|-----R---------|---------------R-|
G|---------------|---------------|---------------|-----------------|
C|-0-0---6-5-3-0-|-0-0---6-5-3-0-|-0-0---6-5-3-0-|-0-0-3-0-3-5-6---|

   q e e e e e e  +e e e e e e e e  +e e e e e e e e  +e e e q e e e
F|---------------|-----------------|-----------------|---------------|
C|---------------|-----------------|-----------------|---------------|
G|---------------|-----------------|-----------------|---------------|
C|-0-3-0-3-5-6-0-|-0-0-3-0-3-5-6-0-|-0-0-3-0-3-5-6-6-|-6-5-3-6-5-3-0-|

  +q e e e e e e  +e e e e e e e e  +e e e e e e e e  +e e e e e e e e
F|---------------|-----------------|-----------------|-----------------|
C|---------------|-----------------|-----------------|---------------R-|
G|---------------|-----------------|-----------------|-----------------|
C|-0-3-0-3-5-6-0-|-0-0-3-0-3-5-6-0-|-0-0-3-0-3-5-6-0-|-0-0-3-0-3-5-6---|

   e e e e e e e e   e e e e e e e e   e e e e e e e e   e e e e e e e e
F|-----------------|-----------------|-----------------|-----------------|
C|-0-0-0-0-0-0-0-0-|-----------------|-----------------|-3-3-3-3-2-2-2-2-|
G|-----------------|-1-1-1-1-1-1-1-1-|-3-3-3-3-3-3-3-3-|-----------------|
C|-----------------|-----------------|-----------------|-----------------|

   e e e e e e e e   e e e e e e e e   e e e e e e e e   e e e e e e e e
F|-----------------|-----------------|-----------------|-----------------|
C|-0-0-0-0-0-0-0-0-|-----------------|-----------------|---R---R---------|
G|-----------------|-1-1-1-1-1-1-1-1-|-3-3-3-3-3-3-3-3-|-----------------|
C|-----------------|-----------------|-----------------|-2---2---2-4-4-2-|

   e e e e e e e e   e e e e e e e e   e e e e e e e e   e e e e e e e e
F|-----------------|-----------------|-----------------|-----------------|
C|---R---R---------|---R---R---------|---R-----R---R---|---R---R---------|
G|---------------0-|-1---1---1-1-0-1-|-3---3-3---3---3-|-----------------|
C|-0---0---0-0-0---|-----------------|-----------------|-2---2---2-4-4-2-|

   e e e e e e e e   e e e e e e e e   e e e e e e e e   w
F|-----------------|-----------------|-----------------|---|
C|---R---R---------|---R---R---------|---R-----R---R-2-|-3-|
G|---------------0-|-1---1---1-1-0-1-|-3---3-3---3-----|---|
C|-0---0---0-0-0---|-----------------|-----------------|---|

   e e e e e e e e    e  e  e  e  e  e  e  e
F|------------------|-------------------------|
C|------------------|-------------------------|
G|-1-1-1-1-1-1-1-1/-|-13-13-13-13-12-13-13-13-|
C|------------------|-------------------------|

   e e e e e e e e   e e e e e e e e
F|-----------------|-----------------|
C|-3-3-3-3-2-3-3-3-|-3-3-3-3-2-3-3---|
G|-----------------|---------------2-|
C|-----------------|-----------------|

   e e e e e e e e    e  e  e  e  e  e  e  e
F|------------------|-------------------------|
C|------------------|-------------------------|
G|-1-1-1-1-1-1-1-1/-|-13-13-13-13-12-13-13-13-|
C|------------------|-------------------------|

   e e e e e e e e   e e e e q q
F|-----------------|-------------|
C|-3-3-3-3-2-3-3-3-|-3-3-3-3-3---|
G|-----------------|-----------2-|
C|-----------------|-------------|

   h q q   h q q   q q e e e e  +e e e q e e e
F|-------|-------|---5---5-----|---3-----------|
C|-------|-----1-|-3---3---3---|-----------5---|
G|-1-1-1-|-3-3---|-----------5-|-5---5-3-3---3-|
C|-------|-------|-------------|---------------|

   e e e e e e e e   e e e e e e e e   e e e e e e e e   e e e e e Q x2
F|-----------------|-----------------|-----------------|---------5----|
C|-----------------|-----------------|-----------------|-------5---R-*|
G|-1-1-1-1-1-1-1-1-|-1-1-1-1-1-1-1-1-|-3-3-3-3-3-3-3-3-|-3-3-3-------*|
C|-----------------|-----------------|-----------------|--------------|

    e e q e e e e   e e e e e e e e x3 e e q e e e e  +e e e e e e e e
F|----------5-----|-----5------------|---------5-----|-----------------|
C|*---R---------3-|-R-3---3---------*|---R---------3-|-3-3-3-3-2-3-3---|
G|*-1---1-3---3---|---------5-5-5-0-*|-1---1-3---3---|---------------3-|
C|----------------|------------------|---------------|-----------------|

    e e q e e e e   e e e e e e e e x3 e e q e e e e  +e e e e e e e e
F|----------5-----|-----5------------|---------5-----|-----------------|
C|*---R---------3-|-R-3---3---------*|---R---------3-|-3-3-3-3-2-3-3---|
G|*-1---1-3---3---|---------5-5-5-0-*|-1---1-3---3---|---------------3-|
C|----------------|------------------|---------------|-----------------|

    e e q e e e e   e e e e e e e e x3 e e q e e e e  +e e e e e e e e
F|----------5-----|-----5------------|---------5-----|-----------------|
C|*---R---------3-|-R-3---3---------*|---R---------3-|-3-3-3-3-2-3-3---|
G|*-1---1-3---3---|---------5-5-5-0-*|-1---1-3---3---|---------------3-|
C|----------------|------------------|---------------|-----------------|

    e e H   h e e e e x2 e e e e e e e e   e e e e e e e e
F|--------|------------|-----------------|-----------------|
C|*-----R-|-R-R-------*|-----------------|-----------------|
G|*-3-3---|-----1-1-2-*|-3-3-3-3-3-3-3-3-|-3-3-3-3-3-1-1-2-|
C|--------|------------|-----------------|-----------------|

   e e q e e q   w   q q q q   w  +w  +w  +w  +w  +w  +w  +h h   h+h     w x2
F|-------------|---|---------|---|---|---|---|---|---|---|-----|------|-----|
C|-----R-----R-|---|-3-R-3-R-|-3-|-3-|-3-|-3-|-3-|-3-|-3-|-3-R-|-3-3\-|*-R-*|
G|-3-3---3-3---|-3-|---------|---|---|---|---|---|---|---|-----|------|*---*|
C|-------------|---|---------|---|---|---|---|---|---|---|-----|------|-----|
                              //  //  //  //  //  //  //


Key___

w = whole            / = slide up
h = half             \ = slide down
q = quarter
e = eighth
s = sixteenth

Capitals = dotted

+ = tie note

R = Rest

// =  tremolo

      x#
F|-----|
C|*---*| = Repeat measure(s) by the number given above
G|*---*|
C|-----|

            
            
Suggest correction
Creating personal tab
Creating personal tab
You can edit any tab online and save it as your Personal.

You can edit, replace or remove any tab part or add personal notes – all changes will be seen only by you.

Personal tabs can be accessed anytime from any device, even offline.
Learn more »
comments
print report bad tab
3 comments total.
-1 reply
killer kat 10 Mar 04, 2010 12:44 PM

the tab was wrong

-1 reply
killer kat 10 Mar 04, 2010 12:44 PM

the tab was wrong

-1 reply
killer kat 10 Mar 04, 2010 12:45 PM

i dont know why that entered twice

guest
You may want to rate the tab now too:
select rating
Wanna post a correction for this tab? Suggest correction