Oops, an error
Loading. Please wait.

Koi No Mega-Lover tab

version 1
version 1

Whole song

Interactive

15,687 views 45 this week
1 commentread comment
1 2 3 4 5
x 4
add to favorites
×
Save as Personal and add changes to this tab that will be seen only by you. Learn more ›
×
You can save this tab as Personal to edit and correct it or add notes. All changes will be seen only by you. Learn more »
launch autoscroll
font size
0
reset
how to read this tab
guitar tuner
edit
Autoscroll
slow
fast
+/-
esc
set tempo
stop
I play this song different from the videos on youtube, but its the same notes, if you 
play it the other way just tune to drop C and play everything 3 frets up the neck except 
opens, this is my first tab so dont get to pissed if it not good.
If anythings wrong email me  a_smith1995@yahoo.com
if you know the real lyrics, please email me, my band is trying to cover this song but 
hard when you dont know what their saying, thanks.
-Adam

song: Koi No Mega Lover
Artist:Maximum The Hormone
Tuning: Drop D (or C)

Intro
e----------------------------------------------------------------------------|
B----------------------------------------------------------------------------|
G----------------------------------------------------------------------------|
D--6-6-7-8------6-6-7-8-----6-6-7-8-8'------6-6-7-8'-------------------------|
A--6-6-7-8------6-6-7-8-----6-6-7-8-8'-x12--6-6-7-8'-x12---------------------|
D--6-6-7-8------6-6-7-8-----6-6-7-8-8'------6-6-7-8'-------------------------|


Chorus                          mini Hammer on part
e----------------------------------------------------------------------------|
B-------------------------------8h10-----------------------------------------|
G---------8-8-8-5-5-5----------8---------------------------------------------|
D-6-6-88--8-8-8-5-5-5---------------12---------------------------------------|
A-6-6-88--6-6-6-3-3-3---X4---------------------------------------------------|
D-6-6-88---------------------------------------------------------------------|

Verse
e----------------------------------------------------------------------------|
B----------------------------------------------------------------------------|
G----------------------------------------------------------------------------|
D-0-3-0-3-0-3-0-3-5-6----000-653-0-0----0-3-0-356-----653-653----------------|
A-0-3-0-3-0-3-0-3-5-6-x4-000-653-0-0x3--0-3-0-356-x2--653-653----------------|
D-0-3-0-3-0-3-0-3-5-6----000-653-0-0----0-3-0-356-----653-653----------------|

e---------------------------------------------------------|
B---------------------------------------------------------|
G---------------------------------------------------------|
D-0-0-0-0-3-5-6-0-0-0-0-3-5-6-0-0-0-0-3-5-6--6-5-3-6-5-3--|
A-0-0-0-0-3-5-6-0-0-0-0-3-5-6-0-0-0-0-3-5-6--6-5-3-6-5-3--|repeat previous part
D-0-0-0-0-3-5-6-0-0-0-0-3-5-6-0-0-0-0-3-5-6--6-5-3-6-5-3--|

Pre-Chorus/Breakdown thingy

e----------------------------------------------------------------------------|
B----------------------------------------------------------------------------|
G-5------------------8---------5-----------------8---------------------------|
D-5----6------8------8--x8-----5-x6--6-----8-----8--x6-----------------------|
A-3-x8-6-x8---8--x8--6---------3-----6-x6--8--x6-6---------------------------|
D------6------8----------------------6-----8---------------------------------|
                                       figure out strumming pattern here


e----------------------------------------------------------------------------|
B-------------9-8--9-8-------------------------------------------------------|
G-------------9-8--9-8--------------------------8-8-88--5--------------------|
D--6'---------9-8--9-8--x2--------6-6-66-8-8-88-8-8-88--5--------------------|
A--6'-x16-------------------------6-6-66-8-8-88-6-6-66--3--------------------|
D--6'-----------------------------6-6-66-8-8-88------------------------------|


e----------------------------------------------------------------------------|
B----------------------------------------------------------------------------|
G----------------------------------------------------------------------------|
D--6'--------8'-------888-8-8------------------------------------------------|
A--6'-x16----8'x8-----888-8-8------------------------------------------------|
D--6'--------8'-------888-8-8------------------------------------------------|

Repeat Chorus
Repeat Verse
Repeat Breakdown
Reapeat Chorus


Solo (as best as i can)
e----------------------------------------------------------------------------|
B----------------8-8--12b-8-------------10h12--------------------------------|
G---8--10--8--10-------------8--10-8-10--------10-8--------------------------|
D--------------------------------------------------X2------------------------|
A----------------------------------------------------------------------------|
D----------------------------------------------------------------------------|

Repeat Intro


There ya go! email me if something wrong
-Adam

            
            
Suggest correction
Creating personal tab
Creating personal tab
You can edit any tab online and save it as your Personal.

You can edit, replace or remove any tab part or add personal notes – all changes will be seen only by you.

Personal tabs can be accessed anytime from any device, even offline.
Learn more »
comments
print report bad tab
1 comment total.
0 reply
KilljoyBassist 193 Jul 02, 2015 03:57 PM, edited at 07:57 pm

Yep, this is played in drop C, the hardcore parts are right but you need to bring all the other bits 2 notes up not 3.

For example:
d----------------------------------------------------------------------------|
a-------------------------------------------------6h8p6----------------------|
f----------10-10--7-7-----------------10-10---5-7-------7--------------------|
c-8-8-1010-10-10--7-7--------8-8-1010-10-10----------------------------------|
g-8-8-1010--8--8--5-5----X3--8-8-1010--8--8----------------------------------|
c-8-8-1010-------------------8-8-1010----------------------------------------|

I also corrected the little harmony bit there.

Otherwise awesome tab though it really helped me!

guest
Wanna post a correction for this tab? Suggest correction