Oops, an error
Loading. Please wait.

Policeman Benz bass

version 1
version 1

Whole song

Interactive

2,407 views 1 this week
no commentswrite comment
1 2 3 4 5
2 more votes to show rating
add to favorites
×
Save as Personal and add changes to this tab that will be seen only by you. Learn more ›
×
You can save this tab as Personal to edit and correct it or add notes. All changes will be seen only by you. Learn more »
launch autoscroll
font size
0
reset
guitar tuner
edit
Autoscroll
slow
fast
+/-
esc
set tempo
stop
Author
Policeman Benz by Maximum the Hormone
Bass tab by J (MtH2112)
Email at lfsiii12 @ hotmail.com for comments, changes, etc. The very end
is probably a good bit off.


G|-----------------|-----------|
D|*-----------5h7-*|-----7-----|
A|*---------------*|-----------|
E|--5-5--5-5-------|-5-5---5---|
                x3

G|-----------------|-----------|
D|*-----------5h7-*|-----7-----|
A|*---------------*|-----------|
E|--5-5--5-5-------|-5-5---5---|
                x3

G|-------------------|-----------------|
D|*-----------------*|-----------------|
A|*-----------------*|-----------------|
E|--5-5-6-5-5-6-5-8--|-5-5-6-5---------|
                  x3

G|-------------------|
D|*-----------------*|
A|*-----------------*|
E|--5-5-6-5-5-6-5-8--|
                  x4

G|-------------------|---------|
D|*-------------5h7-*|---------|
A|*-----------------*|---------|
E|--5-6-8-5-6-8------|-5-6-8---|
                  x7

G|-------------------|
D|*-----------------*|
A|*-----------------*|
E|--5-5-6-5-5-6-5-8--|
                  x8

G|---------------|-----------------|---------------|-----------------|
D|*-------------*|-----------------|*-------------*|-----------------|
A|*-------------*|-----------------|*-------------*|-----------------|
E|--0-0---0/3-5--|-6-6-6-6-5-5-5-5-|--0-0---0/3-5--|-6-6-6-6-5-------|
              x3                                x3

G|-------|-------------------|-----------------|
D|-------|*-----------------*|-----------------|
A|-------|*-----------------*|-----------------|
E|-----0/|--5-5-6-5-5-6-5-8--|-5-5-6-5-5-------|
                         x3

Chorus (kind of, all of this will be repeated, again)
G|-------------------|-----------------|
D|*-----------------*|-----------------|
A|*-----------------*|-----------------|
E|--5-5-6-5-5-6-5-8--|-5-5-6-5-8-8-8-8-|
                  x7

G|---------------|-----------------|---------------|
D|*-------------*|-----------------|*-------------*|
A|*-5-5-5-5--3--*|-----------------|*-5-5-5-5--3--*|
E|---------------|-5-5-5-5-1-1-1-1-|---------------|
              x3                                x3

G|-----------------|-----------------|-----------------|-----------------|
D|-----------------|-----------------|-----------------|-----------------|
A|-----------------|-----------------|-----------------|-----------------|
E|-1-1-1-1-1-1-1-1-|-1-1-1-1-1-1-1-1-|-5-5-5-5-5-5-5-5-|-5-5-5-5-5-------|

G|-----------------|-----------------|-----------------|-----------------|
D|-----------------|-----------------|-----------------|-----------------|
A|-3---3-----------|---------3---3---|-3---3-----------|---------3-3-3---|
E|---------3---3---|-1---1-----------|---------3---3---|-1---1-----------|

G|-----------------|-----------------|-----------------|-----------------|
D|-----------------|-----------------|-----------------|-----------------|
A|-3---3-----------|---------3---3---|-3---3-----------|---------3-3-3-3-|
E|---------3---3---|-1---1-----------|---------3---3---|-1---1-----------|

G|-----------------|-----------------|-----------------|-----------------|
D|-----------------|-----------------|-----------------|-----------------|
A|-3-3---3---------|---------3-3---3-|-3-3---3---------|---------3-3-3-3-|
E|---------3-3---3-|-1-1---1---------|---------3-3---3-|-1-1---1---------|

G|-----------------|-----------------|-----------------|
D|-----------------|-----------------|-----------------|
A|-3-3---3---------|---------3-3-----|-----------------|
E|---------3-3---3-|-1-1---1---------|-1-------3-3-----|
End of Chorus

G|-------------------|-----------------|
D|*-----------------*|-----------------|
A|*-----------------*|-----------------|
E|--5-5-6-5-5-6-5-8--|-5-5-6-5---------|
                  x7

G|-------------------|-----------------|
D|*-----------------*|-----------------|
A|*-----------------*|-----------------|
E|--5-5-6-5-5-6-5-8--|-5-5-6-5-5-------|
                  x3

Repeat Chorus

G|-----------------|
D|-----------------|
A|-----------------|
E|-1-------3-------|

G|-----------------|-----------------|-----|---------|
D|-----------------|-----------------|-----|---------|
A|-----------------|-----------------|-----|---------|
E|-5-5---5-5---5---|-5-5---5-5---5-4-|-5---|----8888-|
                x4               x16

G|--------------------|---------|---------|
D|*------------------*|---------|---------|
A|*------------------*|---------|---------|
E|--5585558555855444--|-5---5---|-5-------|
                   x4

G|-----------------|-----------------|----------|
D|-----------------|---------3---0-5-|-7~-------|
A|-0-1-2-3-0-1-3-0-|-6-3-4-5---3-----|----------|
E|-----------------|-----------------|----------|

h = hammer-on
~ = vibrato

G|------|
D|*----*|
A|*----*|
E|------| = Repeat measure by however much is numbered below the measure.

            
            
Suggest correction
Creating personal tab
Creating personal tab
You can edit any tab online and save it as your Personal.

You can edit, replace or remove any tab part or add personal notes – all changes will be seen only by you.

Personal tabs can be accessed anytime from any device, even offline.
Learn more »
Give kudos to tab author, rate the tab!
1 2 3 4 5
comments
print report bad tab
guest
You may want to rate the tab now too:
select rating
Wanna post a correction for this tab? Suggest correction