Oops, an error
Loading. Please wait.

Zetsubou Billy bass

version 1
version 1
17,329 views 12 this week
3 commentsread comments
1 2 3 4 5
x 6
add to favorites
×
Save as Personal and add changes to this tab that will be seen only by you. Learn more ›
×
You can save this tab as Personal to edit and correct it or add notes. All changes will be seen only by you. Learn more »
launch autoscroll
font size
0
reset
guitar tuner
edit
Autoscroll
slow
fast
+/-
esc
set tempo
stop
Author
Difficulty
Disclaimer: i do not own maximum the hormone or zetsubou billy

Note: the song CAN be played in dropped C tuning. but it sounded like crap so
my Tab is in regular tuning.
im 97.9% sure i got it all right.
I know the order is confusing just follow it.

intro:
G-----------------22---------22---------------|(first4 notes in beginning only)
D-(1-1---1-1)----1----1-22--1----1-22---------| x4
A---------------------------------------------|
E---------------------------------------------|

Verse
G----------------------------------------------|
D----------------------------------------------|
A--6---4----2-------4--------------------------|
E---------------4------------------------------|

G---------------------------------------------------------------------------------|
D---------------------------------------------------------------------------------|
A--6666666666666666--4444444444444444--2222222222222222------------------55555555-|
E-------------------------------------------------------6666666666666666----------|

V pt2
G----------------------------------------------------------------|
D----------------------------------------------------------------|
A--6-6-6-6r----6-6-6-6-------------------------------------------|
E-----------------------2-2-2-2--2-2-2-2r------------------------|

G-------------------------------|
D-11111111----------------------|
A-------------------------------|
E----------222222-44444444-4pa--|

Chorus
G---------------                        then play this G----------------|
D---------------                                       D----------------|
A-222--4-44--6-66-----2-22-4-44-6666666- x2            A--2--4--6-66666-|
E-----------------222-------------------               E----------------|

Bridge1/Bass solo
G---------------------------------|
D---------------------------------|
A--6-5555-6-5-6-77----------------| x24
E---------------------------------|

Bridge2
G----------------------------|
D----------------------------| x2
A--6r-6--6r-6--6r-6-6r-6-6pa-|
E----------------------------|


Bridge3
G-------------------------------6r-|
D----------------------------------|
A-6r-----------------2-22---4r-----|
E-------2r------4-4----------------|

Bridge4(like the chorus but altered. Play this when the drummer starts singing near the end)
G-----------------------------------     G-------------|
D------------3h4p3------------------     D-------------|
A--2222--444------------------------ x2  A-2--2-4--4h6-|
E------------------66666--222--4--6-     E-------------|


order:
Intro
Verse
V pt2
Chorus
Intro
Verse
V pt2
Chorus
Bridge 1/bass solo
Bridge 2
bridge 1 (play 8 times instead of 24)
Bridge 3
(vocal and guitar break)
Chorus (play once not twice)
Bridge 4
Intro (outro)

            
            
Suggest correction
Creating personal tab
Creating personal tab
You can edit any tab online and save it as your Personal.

You can edit, replace or remove any tab part or add personal notes – all changes will be seen only by you.

Personal tabs can be accessed anytime from any device, even offline.
Learn more »
comments
print report bad tab
3 comments total.
+1 reply
JoshuaCAdams 10 Feb 05, 2009 06:17 AM

Pretty decent job from what I can tell

0 reply
c00b 10 Feb 10, 2014 04:45 PM

what does "pa" mean? Pull off?

0 reply
RyanZilla 10 Dec 10, 2014 07:57 PM

Great tab, though I prefer playing the intro riff like this
G-----------------77---------77---------------|
D-(6-6---6-6)----6----6-77--6----6-77---------|
A---------------------------------------------|
E---------------------------------------------|

guest
You may want to rate the tab now too:
select rating
Wanna post a correction for this tab? Suggest correction