Oops, an error
Loading. Please wait.
We have an official Zetsubou Billy tab made by UG professional guitarists. Check out the tab »
×
3,268 views 1 this week
no commentswrite comment
1 2 3 4 5
1 last vote to show rating
add to favorites
×
Save as Personal and add changes to this tab that will be seen only by you. Learn more ›
×
You can save this tab as Personal to edit and correct it or add notes. All changes will be seen only by you. Learn more »
launch autoscroll
font size
0
reset
guitar tuner
edit
Autoscroll
slow
fast
+/-
esc
set tempo
stop
Maximum the Hormone - Zetsubou Billy

Comments: This more of a guitar part than a bass part but I play it on a
bass so I'm submitting it in the form of a bass tab because thats the only
one I know how to play. These are just the basic tabs for Zetsubou Billy,
improvisation can be added.

Intro:

G|-14-14/20-20-14-x-x--|------|
D|-12-12/18-18-12-x-x--|-x10--|
A|---------------------|------|
E|---------------------|------|

Verse Pt1:

G|----18----18----18----18----18----18----18----18--|
D|-16----16----16----16----16----16----16----16-----|
A|--------------------------------------------------|
E|--------------------------------------------------|

G|----16----16----16----16----16----16----16----16--|
D|-14----14----14----14----14----14----14----14-----|
A|--------------------------------------------------|
E|--------------------------------------------------|

G|----14----14----14----14----14----14----14----14--|
D|-12----12----12----12----12----12----12----12-----|
A|--------------------------------------------------|
E|--------------------------------------------------|

G|----------------------------16----16----16----16--|
D|----16----16----16----16-14----14----14----14-----|
A|-14----14----14----14-----------------------------|
E|--------------------------------------------------|

Verse Pt2:

G|-18-18-18-18-18-18-18-18-18-18-18-18-18-18-18-|
D|-16-16-16-16-16-16-16-16-16-16-16-16-16-16-16-|
A|----------------------------------------------|
E|----------------------------------------------|

G|-16-16-16-16-16-16-16-16-16-16-16-16-16-16-16-|
D|-14-14-14-14-14-14-14-14-14-14-14-14-14-14-14-|
A|----------------------------------------------|
E|----------------------------------------------|

G|-14-14-14-14-14-14-14-14-14-14-14-14-14-14-14-|
D|-12-12-12-12-12-12-12-12-12-12-12-12-12-12-12-|
A|----------------------------------------------|
E|----------------------------------------------|

G|-------------------------17-17-17-17-17-17-17-17-|
D|-18-18-18-18-18-18-18-18-15-15-15-15-15-15-15-15-|
A|-16-16-16-16-16-16-16-16-------------------------|
E|-------------------------------------------------|

Pre-Chorus:

G|-18-18-18-18---18-18-18-18----16-16-16-16---16-16-16-16-|
D|-16-16-16-16---16-16-16-16----14-14-14-14---14-14-14-14-|
A|--------------------------------------------------------|
E|--------------------------------------------------------|

G|-14-14-14-14-14-14-14-14-------------------------|
D|-12-12-12-12-12-12-12-12-15-15-15-15-15-15-15-15-|
A|-------------------------13-13-13-13-13-13-13-13-|
E|-------------------------------------------------|

G|-------------------------------------------------|
D|-17-17-17-17-17-17-17-17-17-17-17-17-17-17-17-17-|
A|-15-15-15-15-15-15-15-15-15-15-15-15-15-15-15-15-|
E|-------------------------------------------------|

Chorus:

G|-14-14-14-16-16-16-18-18-18----------14-14-14-16-16-16-18-18-18--|----|
D|-12-12-12-14-14-14-16-16-16-14-14-14-12-12-12-14-14-14-16-16-16--|-x2-|
A|----------------------------12-12-12-----------------------------|----|
E|-----------------------------------------------------------------|----|

G|-14-----16-----18*-------------------------------|
D|-12-----14-----16*-------------------------------|
A|-------------------------------------------------|
E|-------------------------------------------------|

Bridge riff:

G|-18--17--18-17-17--18--17--18-19-19-|
D|-16--15--16-15-15--16--15--16-17-17-|
A|------------------------------------|
E|------------------------------------|
   Repeat as much times as necsessary

Song order:
Intro
Verse Pt1
Verse Pt2
Pre-Chorus
Chorus
Intro
Verse Pt1
Verse Pt2
Pre-Chorus
Chorus
Bridge
Chorus
Intro

            
            
Suggest correction
Creating personal tab
Creating personal tab
You can edit any tab online and save it as your Personal.

You can edit, replace or remove any tab part or add personal notes – all changes will be seen only by you.

Personal tabs can be accessed anytime from any device, even offline.
Learn more »
Give kudos to tab author, rate the tab!
1 2 3 4 5
comments
print report bad tab
guest
Wanna post a correction for this tab? Suggest correction