Oops, an error
Loading. Please wait.

Hear The Sound tab

493 views 9 this week
no commentswrite comment
1 2 3 4 5
2 more votes to show rating
add to favorites
×
Save as Personal and add changes to this tab that will be seen only by you. Learn more ›
×
You can save this tab as Personal to edit and correct it or add notes. All changes will be seen only by you. Learn more »
launch autoscroll
font size
0
reset
how to read this tab
guitar tuner
edit
Autoscroll
slow
fast
+/-
esc
set tempo
stop
-----------------------------------------------------------------------------
                    HEAR THE SOUND - Mayday Parade
-----------------------------------------------------------------------------
Tuning: Drop D (DADGBe)

Bonus track from Monsters In The Closet (2013). One of my favourites by them, enjoy!

Check out my guitar cover on YouTube!: https://www.youtube.com/watch?v=nULwzOtz_gI

Intro:

Guitar 1 (clean)
e|-----------------------------------------------------------|-1-----|-1~----||
B|-----3-----3---------3-----3---------3-----3-----------3---|---3---|-------||
G|---3---3-----3-----3---3-----3-----3---3-----3---3---3---3-|-----3-|-------||
D|-5-------5-----5-1-------1-----1---------------------------|-------|-------||
A|---------------------------------1-------1-----1---1-------|-------|-------||
D|-----------------------------------------------------------|---1.--|---2.--||

e|-----------------------------------------------------------------|
B|-----------------------------------------------------------------|
G|---------------------------------------------------3~------------|
D|---------------------------------------------------3~------------|
A|---------------------------------------------------1~------------|
D|-----------------------------------------------------------------|
                                                     Raise volume
Intro 2:            

Guitar 1                                 0:39 - clean
e|-----------------2x-|----------------|-----------------------------------------------------------1-----|
B|--------------------|----------------|-----3-----3---------3-----3---------3-----3-----------3-----3---|
G|-------------3------|-3~-------------|---3---3-----3-----3---3-----3-----3---3-----3---3---3---3-----3-|
D|-5-----1-----3--x16-|-3~---(silence)-|-5-------5-----5-1-------1-----1---------------------------------|
A|-5--x8-1--x8-1------|-1~-------------|---------------------------------1-------1-----1---1-------------|
D|-5-----1------------|----------------|--------------------------------------------------------------2x-|
                                         ^On the 2nd time stop after playing the note on the E string & LR
e|--------------|
B|--------------|
G|-V8~---V10~---| Back to distortion for this bar
D|-V8~---V10~---|
A|-V6~---V8~----|
D|--------------|

Guitar 2
e|-----------------------------------2x-|---18~----------------------------------------------------|
B|-3~/11------10------6-----------------|----------------------------------------------------------|
G|----13b15~--12b14~--8b10~--3~--2~--3~-|-7/15~-----15~--14~--10~---/12~----10~\7~--7b8r-5/7p5~----|
D|--------------------------------------|----------------------------------------------------------|
A|--------------------------------------|----------------------------------------------------------|
D|--------------------------------------|----------------------------------------------------------|

e|-------------------------------------------------------------------------------------------|
B|---------15~b16r---15~---------------------------------------------------------------------|
G|-/15~------------------15~----14b15rb15rb15~-14b15rb15rb15r~-15\--8--x10-777777-5--x8-3333-|
D|-------------------------------------------------------------------------------------------|
A|-------------------------------------------------------------------------------------------|
D|-------------------------------------------------------------------------------------------|
                                                                    *      ****** *     ****  
Chorus:

Guitar 1
e|----------|--------------------------------------------------2x-|
B|----------|-----------------------------------------------------|
G|----------|-----------------------------------------------------|
D|-8~-3~-5~-|-5-----1-----8------8~-3~-5~-5-----1-----8-----3-----|
A|-8~-3~-5~-|-5--x8-1--x8-8--x14-8~-3~-5~-5--x8-1--x8-8--x8-3--x8-|
D|-8~-3~-5~-|-5-----1-----8------8~-3~-5~-5-----1-----8-----3-----|

Guitar 2
e|--------------------------------------------------------------------------------------|
B|--------------------------1~-3~------------------------------4~~~~~----------.--------|
G|-15~-10~-12~-12-----8--------0~---8~-15~-10~-12~-12-----10~\-----5~~-3~~~-10~--8~--7~-|
D|-----------------x8----x8----------------------------x8-------------------------------|
A|-13~-8~--10~-10-----6-------------6~-13~-8~--10~-10-----8~-\--------------8~---6~--5~-|
D|--------------------------------------------------------------------------------------|

e|------------------------------------------------------------------|
B|----------------------------------------------4~~~~~--------------|
G|-12-----8-----3------15~-10~-12~-12-----8---------5~~-3~~~---8~---|
D|-----x8----x8----x12-----------------x8----x8---------------------|
A|-10-----6-----1------13~-8~--10~-10-----6--------------------6~---|
D|------------------------------------------------------------------|

Postchorus/Verse 2:

Guitar 1                              1:37 - clean
e|-----------------------------------|-----------------------------------------------------------1-----| 
B|-----------------------------------|-----3-----3---------3-----3---------3-----3-----------3-----3---|
G|-------------3------3~-------------|---3---3-----3-----3---3-----3-----3---3-----3---3---3---3-----3-|
D|-5-----1-----3--x16-3~---(silence)-|-5-------5-----5-1-------1-----1---------------------------------|
A|-5--x8-1--x8-1------1~-------------|---------------------------------1-------1-----1---1-------------|
D|-5-----1---------------------------|--------------------------------------------------------------2x-|
                                       ^On the 2nd time stop after playing the note on the E string & LR
e|-------------------------------------------|
B|-------------------------------------------|
G|-8~----------------------------------------| Back to distortion for this bar
D|-8~----------------------------------------|
A|-6~----------------------------------------|
D|-------------------------------------------|

Guitar 2
e|-----------------------------------------18~----18--18--18--18---------------------------|
B|-3~/11------10------6-----------------------------15--15--15--15------------13~~~~-------|
G|----13b15~--12b14~--8b10~--3~--2~--3~--7/15~--------------------15~---------15b17~-15~---|
D|-----------------------------------------------------------------------------------------|
A|-----------------------------------------------------------------------------------------|
D|-----------------------------------------------------------------------------------------|
                                         V clean guitar   V
e|---------------------------------------------/6~-------------|
B|------------------------------------------4~-----6~----------|
G|----------------------------------------3-------------3-5~---|
D|-5--x8--------------5--x8------------------------------------|
A|-------6--x8--------------6--x8------------------------------|
D|-------------8--x16-------------8--x16-----------------------|
   *     *     *      *     *     *Gradually lift Palm Mute  
Repeat:
Chorus     

Bridge:

Guitar 1
e|-10-6----------2x-|-8-6----------2x-|-5-6-------------5-6-------------||
B|----.-6-----------|---.-6-----------|---.-6-------6-----.-6-----------||
G|----------8---7---|---------8---7---|---------8---------------8---7---||
D|--------8---8---8-|-------8---8---8-|-------8---8---8-------8---8---8-||
A|------------------|-----------------|---------------------------------||
D|------------------|--------------1.-|------------------------------2.-||

Guitar 2
e|----------------------------------------------------------------------||
B|----------------------------------------------------------------------||
G|----------------------------------------------------------------------||
D|----------------(silence)---------------------------\\\---------------||
A|----------------------------------------------------\\\--(pickscrape)-||
D|----------------------------------------------------\\\---------------||

Bridge cont'd:

Guitar 1
e|-10------13-10-/15-13-10------11--10---|-10------10--10--10-------------|
B|---11--11---------------11--11--11--11-|---11--11--11--11--11-.---------|
G|-----10-------------------10-----------|-----10--------------10---------|
D|---------------------------------------|--------------------------------|
A|---------------------------------------|--------------------------------|
D|------------------------------------3x-|--------------------------------|

Guitar 2
e|------------------------------------------|-----------------------------|
B|----------15-11-/16-15---------13---------|-----------------------------|
G|-15-12--12------------15-12--12--12-15-12-|--(silence)----------.---.---|
D|------12-------------------12-------------|---------------------7---7---|
A|------------------------------------------|-----------------------------|
D|---------------------------------------3x-|-----------------------------|

Prechorus:

Guitar 1 (clean)                  
e|---------------------------------------------|
B|-----3-----3---------3-----3-----------------| 
G|---3---3-----3-----3---3-----3-.--(silence)--|
D|-5-------5-----5-1-------1-----1-------------| 
A|---------------------------------------------| 
D|---------------------------------------------|

Guitar 2
e|--------------------------------------------------|
B|--------------------------------------------------|
G|-7~------------------------------15-----14/15-----|
D|-------------------------------------x7--------x4-|
A|---------------------------------13-----12/13-----|
D|--------------------------------------------------|

Chorus:

Guitar 1 (back to distortion)
e|----------|--------------------------------------------------2x-|
B|----------|-----------------------------------------------------|
G|----------|-----------------------------------------------------|
D|-8~-3~-5~-|-5-----1-----8------8~-3~-5~-5-----1-----8-----3-----|
A|-8~-3~-5~-|-5--x8-1--x8-8--x14-8~-3~-5~-5--x8-1--x8-8--x8-3--x8-|
D|-8~-3~-5~-|-5-----1-----8------8~-3~-5~-5-----1-----8-----3-----|

Guitar 2
e|--------------------------------------------------------------------------------------|
B|--------------------------1~-3~------------------------------4~~~~~----------.--------|
G|-15~-10~-12~-12-----8--------0~---8~-15~-10~-12~-12-----10~\-----5~~-3~~~-10~--8~--7~-|
D|-----------------x8----x8----------------------------x8-------------------------------|
A|-13~-8~--10~-10-----6-------------6~-13~-8~--10~-10-----8~-\--------------8~---6~--5~-|
D|--------------------------------------------------------------------------------------|

e|---------------------------------------------------------|
B|---------------------16~-15~-----------------------------|
G|-12-----8-----3------15~-14~-15-----10-----15-----17-----|
D|-----x8----x8----x12-------------x8-----x8-----x8-----x8-|
A|-10-----6-----1--------------13-----8------13-----15-----|
D|---------------------------------------------------------|

Outro:

Guitar 1
e|------------------------------------------------------|
B|------------------------------------------------------|
G|-------------3-----2222-33-22-------------3~--3~--33~-|
D|-5-----1-----3--x8-2222-33-22-5-----1-----3~--3~--33~-|
A|-5--x8-1--x8-1-----0000-11-00-5--x8-1--x8-1~--1~--11~-|
D|-5-----1----------------------5-----1-----------------|

Guitar 2
e|----------------------------------------------------------------------------||
B|---------------------------------------11--------10------6----------3~--33~-||
G|-15-----14-----10-----3-----2222-33-22-13b15--x6-12b--x4-8b--x4-3~----------||
D|-----x6-----x6-----x4----x8-------------------------------------3~--3~--33~-||
A|-13-----12-----8------1-----0000-11-00--------------------------1~--1~--11~-||
D|----------------------------------------------------------------------------||
__________________________________________________________________________________________________
/ or \ - slide to and from a note
* - palm mute
. - release (stop) note from ringing out after playing it
p - pull-off
~ - hold note

            
            
Suggest correction
Creating personal tab
Creating personal tab
You can edit any tab online and save it as your Personal.

You can edit, replace or remove any tab part or add personal notes – all changes will be seen only by you.

Personal tabs can be accessed anytime from any device, even offline.
Learn more »
Give kudos to tab author, rate the tab!
1 2 3 4 5
comments
print report bad tab
guest
You may want to rate the tab now too:
select rating
Wanna post a correction for this tab? Suggest correction