Oops, an error
Loading. Please wait.

Jamie All Over bass

version 2
version 2

Whole song

Interactive

6,447 views 1 this week
no commentswrite comment
1 2 3 4 5
x 3
add to favorites
×
Save as Personal and add changes to this tab that will be seen only by you. Learn more ›
×
You can save this tab as Personal to edit and correct it or add notes. All changes will be seen only by you. Learn more »
launch autoscroll
font size
0
reset
guitar tuner
edit
Autoscroll
slow
fast
+/-
esc
set tempo
stop
Artist: Mayday Parade
Bassist: Jeremy Lenzo
Song: Jamie All Over
Album: A Lesson In Romantics
Tabbed By: Lewis [lewis_mason21@hotmail.com]

Thought I'd do a four-string version for the previous tab to make it easier ;)  Credit 
to the first tabber, I've just put it to Drop D like it's played.

Key:
~: Let Note Ring
/: Slide Up
\: Slide Down

[Tuning: Drop D - D,A,D,G]


Verse One: [Note: Come in at "We lost ourselves..."]
("I had a dream last night" ... "Spend the summer on the west coast")
G|------------------------|
D|------------------------|
A|------------------------|
D|-55-555-55~--55-555-55~-|

G|------------------------------------------------|
D|------------------------------------------------|
A|-55-555-55~--44-444-44~-------------------------|
D|-------------------------55-555-55~--55-555-55~-|


Pre-Chorus:
("Down and to the left" ... "All I ask")
G|-------------------------------------|
D|-------------------------------------|
A|-22222222-44444444-55555555----------|
D|----------------------------55555555-|

G|--------------------------------|
D|--------------------------------|
A|-22222222-44444444-55555555-----|
D|----------------------------5-5-|


Chorus:
("Hey please don't tell me" ... "The fondest of memories")
G|-----------------------------------------------------------------------|
D|-----------------------------------------------------------------------|
A|------------------------------------3-333333-11111111------------------|
D|-00000000-00000000-66666666-6-6-6-6-------------------66666666-6666667-| [x2]


Verse Two: [Note: Come in at "As the waves crashed..."]
("We made love on the ocean" ... "Not at least till I have to")
G|------------------------------------|
D|------------------------------------|
A|-44-444-44~-------------------------|
D|-------------55-555-55~--55-555-55~-|

G|------------------------------------------------|
D|------------------------------------------------|
A|-55-555-55~--44-444-44~-------------------------|
D|-------------------------55-555-55~--55-555-55~-|


Pre-Chorus:
("Down and to the left" ... "All I ask")
G|-------------------------------------|
D|-------------------------------------|
A|-22222222-44444444-55555555----------|
D|----------------------------55555555-|

G|--------------------------------|
D|--------------------------------|
A|-22222222-44444444-55555555-----|
D|----------------------------5-5-|


Chorus:
("Hey please don't tell me" ... "The fondest of memories")
G|-----------------------------------------------------------------------|
D|-----------------------------------------------------------------------|
A|------------------------------------3-333333-11111111------------------|
D|-00000000-00000000-66666666-6-6-6-6-------------------66666666-6666667-| [x2]


Bridge One: [Note: Put a slight bend on those ringing notes]
("Memories" ... "Memories")
G|-----------------------------------------------------------------|
D|-----------------------------------------------------------------|
A|-22-222-200-000-0-------------22-222-200-000-0-------------------|
D|-----------------5~-5~-5~-5~-5----------------5~-5~-5~--7~-7~-7~-|


Bridge Two:
("I had a dream last night" ... "Ourselves in the bright lights")
G|------------------------------------------------------|
D|------------------------------------------------------|
A|-55555555-55555555-4444444-44444444-------------------|
D|------------------------------------55555555-5~-5~-5~-|


Chorus:
("Hey please don't tell me" ... "The fondest of memories")
G|-----------------------------------------------------------------------|
D|-----------------------------------------------------------------------|
A|------------------------------------3-333333-11111111------------------|
D|-00000000-00000000-66666666-6-6-6-6-------------------66666666-6666667-| [x2]


Outro:
("We made love on the ocean" ... "Down and to the left")
G|---------------------------------------------------------------------|
D|---------------------------------------------------------------------|
A|---------------------------------------------------------------------|
D|-00-000-000-000-055-555-555-555-5/99-999-9\77-777-7\55-555-555-555~--| [x2]

            
            
Suggest correction
Creating personal tab
Creating personal tab
You can edit any tab online and save it as your Personal.

You can edit, replace or remove any tab part or add personal notes – all changes will be seen only by you.

Personal tabs can be accessed anytime from any device, even offline.
Learn more »
Give kudos to tab author, rate the tab!
1 2 3 4 5
comments
print report bad tab
guest
You may want to rate the tab now too:
select rating
Wanna post a correction for this tab? Suggest correction