Oops, an error
Loading. Please wait.

Jamie All Over bass

version 3
version 3

Whole song

Interactive

14,072 views 15 this week
4 commentsread comments
1 2 3 4 5
x 3
add to favorites
×
Save as Personal and add changes to this tab that will be seen only by you. Learn more ›
×
You can save this tab as Personal to edit and correct it or add notes. All changes will be seen only by you. Learn more »
launch autoscroll
font size
0
reset
guitar tuner
edit
Autoscroll
slow
fast
+/-
esc
set tempo
stop
None of the other tabs are right, so i thought i'd do it right for all the mayday fans


"I had a dream last night we.."
(No Bass)

"we lost ourselves in the bright lights.."
G--------------------|
D--------------------|
A--------------------|
E-22-22-22--22-22-22-|

"Begging for chane to get home..."
G------------------------------------|
D------------------------------------|
A-44-44-44---------------------------|
E---------44-44-44-22-22-22-22-22-22-|

"Down and to the left.."
G----------------------------|
D----------------------------|
A-11111-333333-444444--------|
E--------------------2222222-|

"Be California's best.."
G--------------------------------|
D--------------------------------|
A-11111-333333-444444------------|
E--------------------2222222-2-2-|

CHORUS

"And please don't tell me.."
G-------------------------------------------------|
D-------------------------------------------------|
A-44444444----------------------------------------|
E----------22222222-666666666-444444444-222222222-|

"If I roll over when it's over..."
G-------------------------------------------------|
D-------------------------------------------------|
A-44444444----------------------------------------|
E----------22222222-666666666-444444444-222222222-|

"We made love by the ocean.."
(No Bass)

"As the waves crashed around you.."
G-----------------------------|
D-----------------------------|
A-----------------------------|
E-44-44-44-22-22-22--22-22-22-|

"You opened up into my arms.."
G------------------------------------|
D------------------------------------|
A-44-44-44---------------------------|
E---------44-44-44-22-22-22-22-22-22-|

"Down and to the left.."
G----------------------------|
D----------------------------|
A-11111-333333-444444--------|
E--------------------2222222-|

"Be California's best.."
G--------------------------------|
D--------------------------------|
A-11111-333333-444444------------|
E--------------------2222222-2-2-|

"And please don't tell me.."
G-------------------------------------------------|
D-------------------------------------------------|
A-44444444----------------------------------------|
E----------22222222-666666666-444444444-222222222-|

"If I roll over when it's over..."
G-------------------------------------------------|
D-------------------------------------------------|
A-44444444----------------------------------------|
E----------22222222-666666666-444444444-222222222-|

"Founded memories..."
G-------------------------------|
D-------------------------------|
A-------------------------------|
E-66-66-6-44-44-4-22-22-2222222-|

"Memories.."
G-----------------------------------|
D-----------------------------------|
A-----------------------------------|
E-66-66-6-44-44-4-22-22-2-2-2-4-4-4-|

"I had a dream last night we.."
(No Bass)

"We lost ourselves in the bright lights.."
G-------|
D-------|
A-------|
E-2-2-2-|

"And please don't tell me.."
G-------------------------------------------------|
D-------------------------------------------------|
A-44444444----------------------------------------|
E----------22222222-666666666-444444444-222222222-|

"If I roll over when it's over..."
G-------------------------------------------------|
D-------------------------------------------------|
A-44444444----------------------------------------|
E----------22222222-666666666-444444444-222222222-|

"Memories.../We made love by the ocean..."
G-------------------------------------------------|
D-------------------------------------------------|
A-44444444----------------------------------------|
E----------22222222-666666666-444444444-222222222-|

"Memories.../YOu opened up into my arms..."
G-------------------------------------------------|
D-------------------------------------------------|
A-44444444----------------------------------------|
E----------22222222-666666666-444444444-222222222-|

"Down and to the left..."
G-------|
D-------|
A-------|
E-2-2-2-|

Thats it! easy song, nd fun to play. Hope you enjoy! Any questions? e-mail me at
Alwaysfalling01@hotmail.com

            
            
Suggest correction
Creating personal tab
Creating personal tab
You can edit any tab online and save it as your Personal.

You can edit, replace or remove any tab part or add personal notes – all changes will be seen only by you.

Personal tabs can be accessed anytime from any device, even offline.
Learn more »
Give kudos to tab author, rate the tab!
1 2 3 4 5
comments
print report bad tab
4 comments total. Showing first comments.
0 reply
mwebassmaster09 93 Jan 19, 2008 05:25 AM

looks right to me...nice job

0 reply
Dire182 10 Jul 03, 2008 10:24 AM

I think there are some breaks during the Chorus, it's not continuous notes all the way through. I noticed it the first time playing along. I'll try and figure it out.

0 reply
andbass 30 Feb 02, 2009 03:27 PM

there are some mistakes but its okay

guest
You may want to rate the tab now too:
select rating
Wanna post a correction for this tab? Suggest correction