Oops, an error
Loading. Please wait.

Jamie All Over bass

version 5
version 5

Whole song

Interactive

806 views 1 this week
no commentswrite comment
1 2 3 4 5
3 more votes to show rating
add to favorites
×
Save as Personal and add changes to this tab that will be seen only by you. Learn more ›
×
You can save this tab as Personal to edit and correct it or add notes. All changes will be seen only by you. Learn more »
launch autoscroll
font size
0
reset
guitar tuner
edit
Autoscroll
slow
fast
+/-
esc
set tempo
stop
Difficulty
Artist: Mayday Parade
Bassist: Jeremy Lenzo
Song: Jamie All Over
Album: A Lesson In Romantics

Key:
~: Let Note Ring
/: Slide Up
\: Slide Down

Tuning: I took the ver 4 bass tab and transposed it to a 5-string standard
(BEADG) tuning... Mostly because I don't want to retune my 5-string. I left
out the G string because I'm lazy and it isn't used. Haven't tested it out
yet, but enjoy.. remember I copied this and transposed it. All original work
is the guy who did the ver 4 (: So I guess it could be in B tuning for a 4
string...

Verse One: [Note: Come in at "We lost ourselves..."]
("I had a dream last night" ... "Spend the summer on the west coast")
D|------------------------|
A|------------------------|
E|------------------------|
B|-77-777-77~--77-777-77~-|

D|------------------------------------------------|
A|-44-444-44~--33-333-33~-------------------------|
E|------------------------------------------------|
B|-------------------------77-777-77~--77-777-77~-|


Pre-Chorus:
("Down and to the left" ... "All I ask")
D|-------------------------------------|
A|-11111111-33333333-44444444----------|
E|-------------------------------------|
B|----------------------------77777777-|

D|--------------------------------|
A|-11111111-33333333-44444444-----|
E|--------------------------------|
B|----------------------------7-7-|


Chorus:
("Hey please don't tell me" ... "The fondest of memories")
D|------------------------------------------------------------------------|
A|-------------------------------------4-444444-22222222------------------|
E|------------------------------------------------------------------------|
B|-22222222-22222222-77777777-7--7--77-------------------77777777-77777778| [x2]


Verse Two: [Note: Come in at "As the waves crashed..."]
("We made love on the ocean" ... "Not at least till I have to")
D|------------------------------------|
A|-33-333-33~-------------------------|
E|------------------------------------|
B|-------------77-777-77~--77-777-77~-|

D|------------------------------------------------|
A|-44-444-44~--33-333-33~-------------------------|
E|------------------------------------------------|
B|-------------------------77-777-77~--77-777-77~-|


Pre-Chorus:
("Down and to the left" ... "All I ask")
D|-------------------------------------|
A|-11111111-33333333-44444444----------|
E|-------------------------------------|
B|----------------------------77777777-|

D|--------------------------------|
A|-11111111-33333333-44444444-----|
E|--------------------------------|
B|----------------------------7-7-|


Chorus:
("Hey please don't tell me" ... "The fondest of memories")
D|------------------------------------------------------------------------|
A|-------------------------------------4-444444-22222222------------------|
E|------------------------------------------------------------------------|
B|-22222222-22222222-77777777-7--7--77-------------------77777777-77777778| [x2]


Bridge One: [Note: Put a slight bend on those ringing notes]
("Memories" ... "Memories")
D|-----------------------------------------------------------------|
A|-----------------------------------------------------------------|
E|-66-666-644-444-4-------------66-666-644-444-4-------------------|
B|-----------------7~-7~-7~-7~-7----------------7~-7~-7~--9~-9~-9~-|


Bridge Two:
("I had a dream last night" ... "Ourselves in the bright lights")
D|------------------------------------------------------|
A|-44444444-44444444-3333333-33333333-------------------|
E|------------------------------------------------------|
B|------------------------------------77777777-7~-7~-7~-|


Chorus:
("Hey please don't tell me" ... "The fondest of memories")
D|------------------------------------------------------------------------|
A|-------------------------------------4-444444-22222222------------------|
E|------------------------------------------------------------------------|
B|-22222222-22222222-77777777-7--7--77-------------------77777777-77777778| [x2]


Outro:
("We made love on the ocean" ... "Down and to the left")
D|-----------------------------------------------------------------------------------|
B|-----------------------------------------------------------------------------------|
E|-----------------------------------------------------------------------------------|
B|-22-222-222-222-277-777-777-777-7/(11)-(11)(11)(11)-(11)\99-999-9\77-777-777-777~--| [x2]

            
            
Suggest correction
Creating personal tab
Creating personal tab
You can edit any tab online and save it as your Personal.

You can edit, replace or remove any tab part or add personal notes – all changes will be seen only by you.

Personal tabs can be accessed anytime from any device, even offline.
Learn more »
Give kudos to tab author, rate the tab!
1 2 3 4 5
comments
print report bad tab
guest
Wanna post a correction for this tab? Suggest correction