Oops, an error
Loading. Please wait.

Jamie All Over Acoustic chords

version 5
version 5
1,848 views 24 this week
no commentswrite comment
1 2 3 4 5
2 more votes to show rating
add to favorites
×
Save as Personal and add changes to this tab that will be seen only by you. Learn more ›
×
You can save this tab as Personal to edit and correct it or add notes. All changes will be seen only by you. Learn more »
launch autoscroll
font size
0
reset
transpose
0
reset
simplify chords
display chords
guitar tuner
edit
Autoscroll
slow
fast
+/-
esc
set tempo
stop
Strumming
There is no strumming pattern for this song yet. and get +5 IQ
-------------------------------------------------------------------------------
               Jamie All Over Acoustic (Valdosta version) - Mayday Parade
-------------------------------------------------------------------------------
Tabbed by:Chris Salazar
E-mail:chris_jsalazar@yahoo.com

Tuning: Half-step down (D#G#C#F#A#D#)
Album: Valdosta EP 
PLEASE RATE!:)

intro/verses

    D  DM9 G  G
D#|-2--0---3--3--------------------------|
A#|-3--2---3--3--------------------------|
F#|-2--2---0--0--------------------------|
C#|-0--0---0--0(2x)----------------------|
G#|-x--0---2--2--------------------------|
D#|-x--x---3--3--------------------------|
 
then repeat 2x with this picking pattern 

    D          DM9         G         G
D#|-----2--------------------------------------|
A#|---3--3-3-------3\2---------3---------3\2---|
F#|--2-2--2------2----2------0--0-0----0----0--|
C#|-0-----------0-0----0----0-0--0----0-0----0-|
G#|------------0-----------2---------2---------|
D#|--------------------------------------------|

chorus

    D  G  Bm  DM9 G
D#|-2--3--2---0---3--------------------------|
A#|-3--3--3---2---3--------------------------|
F#|-2--0--4---2---0--------------------------|
C#|-0--0--4---0---0(2x)----------------------|
G#|-x--2--2---0---2--------------------------|
D#|-x--3--x---x---3--------------------------|

Bridge/interlude

    Bm  DM9 G  G
D#|-2---0---3---3-
A#|-3---2---3---3-
F#|-4---2---0---0-
C#|-4---0---0---0-
G#|-2---0---2---2-
D#|-x---x---3---3-

    Bm  DM9 G   DM9 D  ....i Had a dream last night we...  D   G  
D#|-2---0---3---0---2--------------------------------------2---3-|
A#|-3---2---3---2---3--------------------------------------3---3-|
F#|-4---2---0---2---2--------------------------------------2---0-|
C#|-4---0---0---0---0--------------------------------------0---0-|
G#|-2---0---2---0---x--------------------------------------0---2-|
D#|-x---x---3---x---x--------------------------------------x---3-|

... back to chorus then 

end (same as chorus - different strum pattern with p.m's)

    D  G  Bm  DM9 G      End on D
D#|-2--3--2---0---3-------------2-------------|
A#|-3--3--3---2---3-------------3-------------|
F#|-2--0--4---2---0-------------2-------------|
C#|-0--0--4---0---0(2x)---------0-------------|
G#|-x--2--2---0---2-------------x-------------|
D#|-x--3--x---x---3-------------x-------------|

|----------------------------------------------------------------------------------------------|

D
   I had a dream last night we

DM9
   Drove out to see Las Vegas
   
G
   We lost ourselves in the bright lights

G
   I wish you could have seen us

D
   Begging for change to get home

DM9
   Or at least San Francisco
   
G
   Let's put a ten on the high card

G
   And spend the summer on the West Coast

*Picking pattern 2x*
D        DM9
Down and to the left

G                           G
(Here's the map and the pen, the place you pointed at)

D       DM9     G
Be California's best

G <--- (this G is strummed twice in the form it was picked not the standard G chord shape)
(All I ask, All I ask)




    D                    G 
And please don't tell me that I'm dreamin'

     Bm         Dm9           G        
When all I ever wanted was to dream another sunset with you

D
If I roll over

G
When it's over

     Bm             DM9
I'll take this Cali sunrise with me

    G
And wake up with the fondest memories




D
   We made love by the ocean

DM9
   As the waves crashed around you

G
   Sunsets never were so bright

G
   And the skies never so blue


D
   You opened up into my arms

DM9
   And we laughed as I held you

G
   I'll never go back to Georgia,

G
   Not at least 'till I have to

*Picking pattern 2x*
D        DM9
Down and to the left

G                           G
(Here's the map and the pen, the place you pointed at)

D       DM9     G
Be California's best

G <--- (this G is strummed twice in the form it was picked not the standard G chord shape)
(All I ask, All I ask)



    D                    G 
And please don't tell me that I'm dreamin'

     Bm         Dm9           G        
When all I ever wanted was to dream another sunset with you

D
If I roll over

G
When it's over

     Bm             DM9
I'll take this Cali sunrise with me

    G                            Bm  DM9 G
And wake up with the fondest memories

    Bm DM9 G Dm D
Memories

I had a dream last night we

                          D
Drove out to see Las Vegas

                                G
We lost ourselves in the bright lights

   D                    G  
And please don't tell me that I'm dreamin'

     Bm         Dm9           G        
When all I ever wanted was to dream another sunset with you

D
If I roll over

G
When it's over

     Bm             DM9
I'll take this Cali sunrise with me

    G                            
And wake up with the fondest

     D
Memories, We made love by the ocean

G
   As the waves crashed around you

Bm         DM9
   Sunsets never were so bright

G
   And the skies never so blue

D
   You opened up into my arms

G
   And we laughed as I held you

Bm      Dm9     
   I'll never go back to Georgia,


G
   Not at least 'till I have to

D
Down and to the left

            
            
Suggest correction
Creating personal tab
Creating personal tab
You can edit any tab online and save it as your Personal.

You can edit, replace or remove any tab part or add personal notes – all changes will be seen only by you.

Personal tabs can be accessed anytime from any device, even offline.
Learn more »
Give kudos to tab author, rate the tab!
1 2 3 4 5
comments
print report bad tab
guest
You may want to rate the tab now too:
select rating
Wanna post a correction for this tab? Suggest correction