Oops, an error
Loading. Please wait.

Just Out Of Reach tab

223 views 6 this week
no commentswrite comment
1 2 3 4 5
x 3
add to favorites
×
Save as Personal and add changes to this tab that will be seen only by you. Learn more ›
×
You can save this tab as Personal to edit and correct it or add notes. All changes will be seen only by you. Learn more »
launch autoscroll
font size
0
reset
how to read this tab
guitar tuner
edit
Autoscroll
slow
fast
+/-
esc
set tempo
stop
Author
Difficulty
This is only my second tab and I picked this up by ear, but I believe this is 95% accurate. Have fun, get
creative with it!


[Verse 1]

e|---------------------------------------------------------------------------------|
B|---------------------------------------------------------------------------------|
G|---------------------------------------------------------------------------------|
D|---------------------------------------------------------------------------------|
A|---5-5h7s/9\7-5-0---5---5---5----------------------------------------------------|
E|------------------7---7---6---6--------------------------------------------------|
(Repeat this until going to the chorus and go to Bm on "me..."


[Chorus 1]
A                           G
Drop everything come back to me
                          F#m         Bm
float in ecstacy with you next to me now
                          A                    G     
when you play for the long run you play for the team
                   
we're all coming home 


[Verse 2]
repeat verse structure
go to Bm on "reach..."



Repeat Chorus 1



[Chorus 2]
Bm                   A
When you talk among friends
G                           A
you'd kill for a reason to be somewhere else
Bm                   A
anywhere, I didn't mind 
              G
you weren't there 
          A             Bm
you were just out of reach

[Interlude]
e|---------------
B|---------------
G|---------------     Repeat many times
D|---------------
A|---0h2-2-2-2---
E|---------------

[Bridge] SAME CHORDS AS CHORUS 2 or use tab below
I won't lie
i wore your name for a while
till it started to burn in my head
as you once said
if home was a place 
you'd do all that you could not to stay

[Repeat Chorus 2]
[Repeat Chorus 1]
[Repeat Chorus 2] with bridge/ outro tab below

[Bridge/Outro tab]
e|---------------------------------------------------------------------------|
B|---------------------------------------------------------------------------|
G|---------------------------------------------------------------------------|
D|---------------------------------------------------------------------------|
A|------9-7----------7-5-------5--5-5--5-4-4---------------------------------|
E|-7-10-----10-9-5-9-----9-7-3--3--7--3-3-5----------------------------------|


************************************

| h  Hammer-on
| \  Slide down
| s/ slide up

************************************

            
            
Suggest correction
Creating personal tab
Creating personal tab
You can edit any tab online and save it as your Personal.

You can edit, replace or remove any tab part or add personal notes – all changes will be seen only by you.

Personal tabs can be accessed anytime from any device, even offline.
Learn more »
Give kudos to tab author, rate the tab!
1 2 3 4 5
comments
print report bad tab
guest
You may want to rate the tab now too:
select rating
Wanna post a correction for this tab? Suggest correction