Oops, an error
Loading. Please wait.

Last Something That Meant Anything tab

version 3
version 3

Whole song

10,102 views 1 this week
3 commentsread comments
1 2 3 4 5
x 4
add to favorites
×
Save as Personal and add changes to this tab that will be seen only by you. Learn more ›
×
You can save this tab as Personal to edit and correct it or add notes. All changes will be seen only by you. Learn more »
launch autoscroll
font size
0
reset
how to read this tab
guitar tuner
edit
Autoscroll
slow
fast
+/-
esc
set tempo
stop
Author
Difficulty
I'm not even sure if this is 90% right but it sounds ok.
Please enjoy! Timing might be a little off.


e----------------------------------|
B----------------------------------|
G--7---7---5---5---4---4-----------|
D--5-5-5-5-5-5-5-5-5-5-5-5-7-5-4-0-|
A----------------------------------|
E----------------------------------|
0:01

e----------------------------------|
B------------------------0---------|
G------0-------0-------0---0-------|
D----0---0---0---0-0-0-------4-0---|
A--7-------7-----------------------|
E----------------------------------|
0:08

e----------------------------------|
B----------------------------------|
G--7---7---5---5---4---4-----------|
D--5-5-5-5-5-5-5-5-5-5-5-5-7-5-4-0-|
A----------------------------------|
E----------------------------------|
0:14

e----------------------------------|
B------------------------0---------|
G------0-------0-------0---0-------|
D----0---0---0---0-0-0-------4-0---|
A--7-------7-----------------------|
E----------------------------------|
0:20

e----------------------------------|
B----------------------------------|
G--7---7---5---5---4---4-----------|
D--5-5-5-5-5-5-5-5-5-5-5-5-7-5-4-0-|
A----------------------------------|
E----------------------------------|
0:27

e----------------------------------|
B------------------------0---------|
G------0-------0-------0---0-------|
D----0---0---0---0-0-0-------4-0---|
A--7-------7-----------------------|
E----------------------------------|
0:33

e----0~------2~------3~------3~----|
B----1~------3~------3~------3~----|
G----0~------2~------0~------0~----|
D----2~------0~------2~------0~----|
A----3~------0~------2~------2~----|
E----x~------x~------0~------3~----|
0:40 C       D       Em      G

e----------------------------------|
B----------------------------------|
G--7---7---5---5---4---4-----------|
D--5-5-5-5-5-5-5-5-5-5-5-5-7-5-4-0-|
A----------------------------------|
E----------------------------------|
0:53

e----------------------------------|
B------------------------0---------|
G------0-------0-------0---0-------|
D----0---0---0---0-0-0-------4-0---|
A--7-------7-----------------------|
E----------------------------------|
0:59

e----------------------------------|
B----------------------------------|
G--7---7---5---5---4---4-----------|
D--5-5-5-5-5-5-5-5-5-5-5-5-7-5-4-0-|
A----------------------------------|
E----------------------------------|
1:06

e----------------------------------|
B------------------------0---------|
G------0-------0-------0---0-------|
D----0---0---0---0-0-0-------4-0---|
A--7-------7-----------------------|
E----------------------------------|
1:11

e----0~------2~------3~------3~----|
B----1~------3~------3~------3~----|
G----0~------2~------0~------0~----|
D----2~------0~------2~------0~----|
A----3~------0~------2~------2~----|
E----x~------x~------0~------3~----|
1:18 C       D       Em      G

e----0------2------3~---2~---0~----|
B----1------3------3~---3~---1~----|
G----0------2------0~---2~---0~----|
D----2------0------2~---0~---2~----|
A----3------0------2~---0~---3~----|
E----x------x------0~---x~---x~----|
1:31 C      D      Em   D    C

e----0~------2~------3~------3~----|
B----1~------3~------3~------3~----|
G----0~------2~------0~------0~----|
D----2~------0~------2~------0~----|
A----3~------0~------2~------2~----|
E----x~------x~------0~------3~----|
1:44 C       D       Em      G

e----3~-------------2~-------------|
B----3~-------------3~-------------|
G----0~-------------2~-------------|
D----2~-------------0~-------------|
A----2~-------------0~-------------|
E----0~-------------x~-------------|
1:50 Em             D

e----0~------2~------3~------3~----|
B----1~------3~------3~------3~----|
G----0~------2~------0~------0~----|
D----2~------0~------2~------0~----|
A----3~------0~------2~------2~----|
E----x~------x~------0~------3~----|
1:56 C       D       Em      G

e----3~-------------2~-------------|
B----3~-------------3~-------------|
G----0~-------------2~-------------|
D----2~-------------0~-------------|
A----2~-------------0~-------------|
E----0~-------------x~-------------|
2:03 Em             D

e----0~------2~------3~------3~----|
B----1~------3~------3~------3~----|
G----0~------2~------0~------0~----|
D----2~------0~------2~------0~----|
A----3~------0~------2~------2~----|
E----x~------x~------0~------3~----|
2:09 C       D       Em      G

e----3~-------------2~-------------|
B----3~-------------3~-------------|
G----0~-------------2~-------------|
D----2~-------------0~-------------|
A----2~-------------0~-------------|
E----0~-------------x~-------------|
2:15 Em             D

e----0~------2~------3~------3~----|
B----1~------3~------3~------3~----|
G----0~------2~------0~------0~----|
D----2~------0~------2~------0~----|
A----3~------0~------2~------2~----|
E----x~------x~------0~------3~----|
2:22 C       D       Em      G

e----3~-------------2~-------------|
B----3~-------------3~-------------|
G----0~-------------2~-------------|
D----2~-------------0~-------------|
A----2~-------------0~-------------|
E----0~-------------x~-------------|
2:28 Em             D

e----0~------2~------3~------3~----|
B----1~------3~------3~------3~----|
G----0~------2~------0~------0~----|
D----2~------0~------2~------0~----|
A----3~------0~------2~------2~----|
E----x~------x~------0~------3~----|
2:35 C       D       Em      G

e----3~-------------2~-------------|
B----3~-------------3~-------------|
G----0~-------------2~-------------|
D----2~-------------0~-------------|
A----2~-------------0~-------------|
E----0~-------------x~-------------|
2:41 Em             D

e----0~------2~------3~------3~----|
B----1~------3~------3~------3~----|
G----0~------2~------0~------2~----|
D----2~------0~------0~------0~----|
A----3~------0~------2~------0~----|
E----x~------x~------3~------2~----|
2:48 C       D       G       Dsus

e----3~-------------2~-------------|
B----3~-------------3~-------------|
G----0~-------------2~-------------|
D----2~-------------0~-------------|
A----2~-------------0~-------------|
E----0~-------------x~-------------|
2:54 Em             D

e----0~------2~------3~------3~----|
B----1~------3~------3~------3~----|
G----0~------2~------0~------2~----|
D----2~------0~------0~------0~----|
A----3~------0~------2~------0~----|
E----x~------x~------3~------2~----|
3:00 C       D       G       Dsus

e----3~-------------2~-------------|
B----3~-------------3~-------------|
G----0~-------------2~-------------|
D----2~-------------0~-------------|
A----2~-------------0~-------------|
E----0~-------------x~-------------|
3:07 Em             D

e----0~------2~------3~------3~----|
B----1~------3~------3~------3~----|
G----0~------2~------0~------2~----|
D----2~------0~------0~------0~----|
A----3~------0~------2~------0~----|
E----x~------x~------3~------2~----|
3:13 C       D       G       Dsus

e----3~-------------2~-------------|
B----3~-------------3~-------------|
G----0~-------------2~-------------|
D----2~-------------0~-------------|
A----2~-------------0~-------------|
E----0~-------------x~-------------|
3:20 Em             D

e----0~------2~------3~------3~----|
B----1~------3~------3~------3~----|
G----0~------2~------0~------2~----|
D----2~------0~------0~------0~----|
A----3~------0~------2~------0~----|
E----x~------x~------3~------2~----|
3:26 C       D       G       Dsus

e----3~-------------2~-------------|
B----3~-------------3~-------------|
G----0~-------------2~-------------|
D----2~-------------0~-------------|
A----2~-------------0~-------------|
E----0~-------------x~-------------|
3:32 Em             D

e----------------------------------|
B----------------------------------|
G--7---7---5---5---4---4-----------|
D--5-5-5-5-5-5-5-5-5-5-5-5-7-5-4-0-|
A----------------------------------|
E----------------------------------|
3:39

e----------------------------------|
B------------------------0---------|
G------0-------0-------0---0-------|
D----0---0---0---0-0-0-------4-0---|
A--7-------7-----------------------|
E----------------------------------|
3:45

e----------------------------------|
B----------------------------------|
G--7---7---5---5---4---4-----------|
D--5-5-5-5-5-5-5-5-5-5-5-5-7-5-4-0-|
A----------------------------------|
E----------------------------------|
3:51

e----------------------------------|
B------------------------0---------|
G------0-------0-------0---0-------|
D----0---0---0---0-0-0-------4-0---|
A--7-------7-----------------------|
E----------------------------------|
3:58

e----------------------------------|
B----------------------------------|
G--7---7---5---5---4---4-----------|
D--5-5-5-5-5-5-5-5-5-5-5-5-7-5-4-0-|
A----------------------------------|
E----------------------------------|
4:04

e----------------------------------|
B------------------------0---------|
G------0-------0-------0---0-------|
D----0---0---0---0-0-0-------4-0---|
A--7-------7-----------------------|
E----------------------------------|
4:11

e----------------------------------|
B----------------------------------|
G--7---7---5---5---4---4-----------|
D--5-5-5-5-5-5-5-5-5-5-5-5-7-5-4-0-|
A----------------------------------|
E----------------------------------|
4:17

e----------------------------------|
B------------------------0---------|
G------0-------0-------0---0-------|
D----0---0---0---0-0-0-------4-0---|
A--7-------7-----------------------|
E----------------------------------|
4:24

e-22-22-22-----22-22-22-20-19-17---| e----------------------------------|
B---20-20-20--20-20-20-------------| B----------------------------------|
G-----------19---------------------| G--7---7---5---5---4---4-----------|
D----------------------------------| D--5-5-5-5-5-5-5-5-5-5-5-5-7-5-4-0-|
A----------------------------------| A----------------------------------|
E----------------------------------| E----------------------------------|
4:30                                 played at same time: softly

e--19-19-19-19-19-19--22--17--19---| e----------------------------------|
B-20-20-20-20-20-20----------------| B------------------------0---------|
G----------------------------------| G------0-------0-------0---0-------|
D----------------------------------| D----0---0---0---0-0-0-------4-0---|
A----------------------------------| A--7-------7-----------------------|
E----------------------------------| E----------------------------------|
4:36                                 played at same time: softly and a bit slower at the ending



created by: Rival_31

            
            
Suggest correction
Creating personal tab
Creating personal tab
You can edit any tab online and save it as your Personal.

You can edit, replace or remove any tab part or add personal notes – all changes will be seen only by you.

Personal tabs can be accessed anytime from any device, even offline.
Learn more »
comments
print report bad tab
3 comments total.
0 reply
flyin 91 Jul 11, 2009 03:12 PM

lmao it's horrible

Guitar 1
e|---------------------------------------------------------------------------|
B|---------------------------------------------------------------0-----------|
G|-7---7---5---5---4---4------------------0-------0------------0---0---------|
D|-5-5-5-5-5-5-5-5-5-5-5--5-/7-5-4------0---0---0---0------0h4-------4-------|
A|---------------------------------5-/7-------7-------7--5-------------5~----|
E|---------------------------------------------------------------------------|

0 reply
flyin 91 Jul 11, 2009 03:17 PM

Riff 1^^
Well I thought that we could sit around and talk for hours
About things I couldn't say to you
And things that we could never do and,
This conversation has had no face
When the words take days you can re-write and erase anything

C D
You know my heart (so tell me honestly do you ever really want this)
Em G
Knows all these parts...

Riff 1^^
And I'll borrow words from all my favorite paragraphs
To write a ballad while we say the things
We hope would mean the most to me
And
Each line is sent I have found a new pages of hope for the days when I feel like I've lost everything

C D
You know my heart (so tell me honestly do you ever really want this)
Em G
Knows all these parts (cause my jealous heart can't take that)
C D* Dsharp Em D
So I'll sing this song for every word that's come out lost

Bm C
But, I'll be ok (Is that what you want me to say?)
Em
It's called breakup
D
Cause it's broken

Same^^
Yeah I'll be ok (Is that what you want me to say?)
It's called breakup
Cause it's broken

Same^^
I'll be ok
Is that what you want me to say?
It's called breakup
Cause it's broken
[Repeats]

Same^^
I'll be ok, is that what you want me to say?
It's called breakup
Cause it's broken

Same^^ EXCEPT THERE'S NO D#!!!
And you were just about to tell me
How you meant that you were sorry
And the lines we've said that
Never meant the world to you
Wrote me down lets keep it slow
Take every note and every page that takes you longer
The cherry flavored kisses
Well I taste them
Do you miss it?

Same^^
I'll be ok
Is that what you want me to say?
It's called breakup
Cause it's broken
[X2]

Rest is Riff 1 ^^
Well I thought that we could sit around and talk for hours
About things I couldn't say to you
And things that we could never do

Here are some lead guitar parts

From beginning
Guitar 2
e|--------7-5-5---------7-5-5---------7-5-5---------7-10-10------------------|
B|--8---8---------8---8---------8---8---------8---8--------------------------|
G|----7-------------7-------------9-------------7----------------------------|
D|---------------------------------------------------------------------------|
A|---------------------------------------------------------------------------|
E|---------------------------------------------------------------------------|

Guitar 2
e|---------------------------------------------------------------------------|
B|--8---8---8---8---10-8---7h8------8/10-10/12-7-8---8/10-10/12-7-8----------|
G|----7-------7----------7---------------------------------------------------|
D|---------------------------------------------------------------------------|
A|---------------------------------------------------------------------------|
E|---------------------------------------------------------------------------|

Guitar 2
e|--7-7----------------------------------------------------------------------|
B|-------10-10-8---7-8-7-8-7----8/10-10/12-7-8----8/10-10/12-7h8-------------|
G|---------------7-----------------------------------------------7-----------|
D|---------------------------------------------------------------------------|
A|---------------------------------------------------------------------------|
E|---------------------------------------------------------------------------|

Guitar 2
e|--------7-5-5---------7-5-5---------7-5-5---------7-8-10------------------|
B|--8---8---------8---8---------8---8---------8---8--------------------------|
G|----7-------------7-------------9-------------7----------------------------|
D|---------------------------------------------------------------------------|
A|---------------------------------------------------------------------------|
E|---------------------------------------------------------------------------|

Guitar 2
e|--------7-5-5----------7-5-5-----s-----7-5-5-3-3~---------------------------|
B|--8---8---------8-7-8----------8---8---------------------------------------|
G|----7----------------------------9-----------------------------------------|
D|---------------------------------------------------------------------------|
A|---------------------------------------------------------------------------|
E|---------------------------------------------------------------------------|

0 reply
flyin 91 Jul 11, 2009 03:18 PM

BTW MY YOUTUBE IS youtube.com/pur33z
SUBSCRIBE

tabbed by dave^^

guest
You may want to rate the tab now too:
select rating
Wanna post a correction for this tab? Suggest correction