Oops, an error
Loading. Please wait.

Without The Bitter The Sweet Isnt As Sweet tab

version 2
version 2

Whole song

  • This is an update to a previous tab of mine.
  • When compared to other tabs for this song, you wil... Show more
361 views 6 this week
2 commentsread comments
1 2 3 4 5
x 3
add to favorites
×
Save as Personal and add changes to this tab that will be seen only by you. Learn more ›
×
You can save this tab as Personal to edit and correct it or add notes. All changes will be seen only by you. Learn more »
launch autoscroll
font size
0
reset
how to read this tab
guitar tuner
edit
Autoscroll
slow
fast
+/-
esc
set tempo
stop
Author
Difficulty
About this tab version
This is an update to a previous tab of mine. Was this info helpful? Yes No
The song Without The Bitter The Sweet Isn't As Sweet on the self titled album by Mayday Parade

This is my first Tab so there are bound to be mistakes but I have made this as close to the track on the album
as possible. I also didn't continue tabbing after the acoustic sections because I figured it gets somewhat
more obvious. Constructive feedback and corrections are appreciated!

I haven't spaced the notes out based on Rhythm at all so you'll have to figure that out yourself :P

Chords Used:
G#m   G♭sus4  E    G♭
e|4|   |2|   |0|   |2|
B|4|   |2|   |0|   |2|
G|4|   |4|   |1|   |3|
D|6|   |4|   |2|   |4|
A|6|   |2|   |2|   |4|
E|4|   |2|   |0|   |2|

*/ = slide*

[Intro]
[guitar 1]
   G#m         G♭sus4       E                       G#m         G♭sus4      E 
e|------------------------------------------------------------------------------------------------| 
B|-----4-----------2-----------0-----------0------------4-----------2-----------0-----------0-----|
G|-------4-----------4-----------1---1-1-----1------------4-----------4-----------1---1-1-----1---|
D|---6-----6-----4-----4-----2-----2-----2-----2------6-----6-----4-----4-----2-----2-----2-----2-|
A|-6-----------2------------------------------------6-----------2---------------------------------|
E|-------------------------0------------------------------------------------0---------------------|
[guitar 2]
e|---------------------------------------------------------------------------|
B|---------------------------------------------------------------------------|
G|-4/6-4-------------------6/8-6-4-6-----------4-4----------6/8-6-4-6-4------|
D|-----------------------------------------4-6------------6-------------4/6--|
A|---------------------------------------------------------------------------|
E|---------------------------------------------------------------------------|



[Verse1]
   G#m         G♭sus4       E                       G#m         G♭sus4      E 
e|------------------------------------------------------------------------------------------------| 
B|-----4-----------2-----------0-----------0------------4-----------2-----------0-----------0-----|
G|-------4-----------4-----------1---1-1-----1------------4-----------4-----------1---1-1-----1---|
D|---6-----6-----4-----4-----2-----2-----2-----2------6-----6-----4-----4-----2-----2-----2-----2-|
A|-6-----------2------------------------------------6-----------2---------------------------------|
E|-------------------------0------------------------------------------------0---------------------|
   We used to be something surreal...
   
   G#m         G♭sus4       E                       G#m         G♭sus4      G♭ 
e|------------------------------------------------------------------------------------------------| 
B|-----4-----------2-----------0-----------0------------4-----------2-----------2-----------2-----|
G|-------4-----------4-----------1---1-1-----1------------4-----------4-----------3---3-3-----3---|
D|---6-----6-----4-----4-----2-----2-----2-----2------6-----6-----4-----4-----4-----4-----4-----4-|
A|-6-----------2------------------------------------6-----------2-----------4---------------------|
E|-------------------------0----------------------------------------------------------------------|



[bridge]
   E                       G#m          G♭          E                       G#m          G♭
e|-------------------0-------------------------------------------------0-----------------------------| 
B|------0------0-------0---------4-----------2------------0------0-------0---------4-----------2-----|
G|---------1-----1-----------------4-----------3-------------1-----1-----------------4-----------3---|
D|---2-------2-----2-----2-----6-----6-----4-----4-----2-------2-----2-----2-----6-----6-----4-----4-|
A|---------------------------6-----------4-------------------------------------6-----------4---------|
E|-0-------------------------------------------------0-----------------------------------------------|
                  And even if it's dark...

   E                        G#m         G♭            E                         G♭
e|-------------------0---------------------------------------------------0--------------------|
B|------0------0-------0---------4-------------2------------0------0-------0----------2-----2-|
G|---------1-----1-------------4---4---------3---3-------------1-----1------------------3-----|
D|---2-------2-----2-----2-----------6-----4-------4-----2-------2-----2------2-----4-----4---|
A|---------------------------6-----------4----------------------------------------4-----------|
E|-0---------------------------------------------------0--------------------------------------|
        
        
        
[Chorus]
   G#m           G♭sus4        E
e|-----------------------------------------------------|
B|-------4-------------2-------------0-----0-----0-----|
G|-----4---4---------4---4---------3---3-----3-----3---|
D|---6-------6-----4-------4-----2-------2-----2-----2-|
A|-6-------------2-------------------------------------|
E|-----------------------------0-----------------------|
  Now even if it's perfect...
  
   G#m           G♭sus4        E                        G#m           G♭sus4        E
e|-----------------------------------------------------------------------------------------------------------|
B|-------4-------------2-------------0-----------0-------------4-------------2-------------0-----------0-----|
G|-----4---4---------4---4---------1---1---1-1-----1---------4---4---------4---4---------1---1---1-1-----1---|
D|---6-------6-----4-------4-----2-------2-----2-----2-----6-------6-----4-------4-----2-------2-----2-----2-|
A|-6-------------2---------------------------------------6-------------2-------------------------------------|
E|-----------------------------0-----------------------------------------------------0-----------------------|

   G#m           G♭sus4        G♭
e|-----------------------------------------------------|
B|-------4-------------2-------------2-----2-----2-----|
G|-----4---4---------4---4---------3---3-----3-----3---|
D|---6-------6-----4-------4-----4-------4-----4-----4-|
A|-6-------------2-------------4-----------------------|  
E|-----------------------------------------------------|  



[bridge]
   E                        G#m         G♭          E                        G#m         G♭
e|-------------------0-------------------------------------------------0-----------------------------| 
B|------0------0-------0---------4-----------2------------0------0-------0---------4-----------2-----|
G|---------1-----1-----------------4-----------3-------------1-----1-----------------4-----------3---|
D|---2-------2-----2-----2-----6-----6-----4-----4-----2-------2-----2-----2-----6-----6-----4-----4-|
A|---------------------------6-----------4-------------------------------------6-----------4---------|
E|-0-------------------------------------------------0-----------------------------------------------|
                  And maybe it will all work out...

   E                        G#m         G♭            E                     
e|-------------------0---------------------------------------------------0----|
B|------0------0-------0---------4-------------2------------0------0-------0--|
G|---------1-----1-------------4---4---------3---3-------------1-----1--------|
D|---2-------2-----2-----2-----------6-----4-------4-----2-------2-----2------|
A|---------------------------6-----------4------------------------------------|
E|-0---------------------------------------------------0----------------------| 

The rest of the song can be played using the same chords as above.

            
            
Suggest correction
Creating personal tab
Creating personal tab
You can edit any tab online and save it as your Personal.

You can edit, replace or remove any tab part or add personal notes – all changes will be seen only by you.

Personal tabs can be accessed anytime from any device, even offline.
Learn more »
Give kudos to tab author, rate the tab!
1 2 3 4 5
comments
print report bad tab
2 comments total.
+1 reply
FluffBoi 10 May 20, 2017 09:08 PM

That's e major not e minor :P not a big deal but notable.

0 reply
AxleGrinder144 32 May 30, 2017 07:39 PM

That's embarrassing. Sorted it on the tab!

guest
You may want to rate the tab now too:
select rating
Wanna post a correction for this tab? Suggest correction