Oops, an error
Loading. Please wait.

Let Me Know bass

1,314 views 3 this week
no commentswrite comment
1 2 3 4 5
3 more votes to show rating
add to favorites
×
Save as Personal and add changes to this tab that will be seen only by you. Learn more ›
×
You can save this tab as Personal to edit and correct it or add notes. All changes will be seen only by you. Learn more »
launch autoscroll
font size
0
reset
guitar tuner
edit
Autoscroll
slow
fast
+/-
esc
set tempo
stop
Author
Difficulty
Track 1
             Q    E  E  E  E  E  E     Q    E  E  E  E  E  E   
G||-------|-------------------------|-------------------------|
D||-------|-------------------------|----------------------6--|
A||-------|--4-------4-----------4--|--L-------4--------------|
E||-------|-------------4--4--------|-------------4--4--------|


  Q    E  E  E  E  E  E     E  E  Q    H           Q    E  E  E  E  E  E   
-------------------------|----------------------|-------------------------|
-------------------------|----------------------|-------------------------|
--4-------4--------------|--4-------------------|--4-------4-----------4--|
-------------4--4-----4--|----------------------|-------------4--4--------|


  Q    E  E  E  E  E  E     Q    E  E  E  E  E  E     Q    E  E  E  E  E  E   
-------------------------|-------------------------|------------------------|
----------------------6--|-------------------------|----------------------6-|
--L-------4--------------|--4-------4-----------4--|--L-------4-------------|
-------------4--4--------|-------------4--4--------|-------------4--4-------|


  Q    E  E  E  E  E  E     Q    E  E  E  E  E  E     Q    E  E  E  E  E  E   
-------------------------|-------------------------|------------------------|
-------------------------|-------------------------|--6-------6-------------|
--4-------4-----------4--|--L-------4--------------|-------------6--6-------|
-------------4--4--------|-------------4--4-----4--|----------------------4-|


  Q    E  E  E  E  E  E     Q    E  E  E  E  E  E     Q    E  E  E  E  E  E   
-------------------------|-------------------------|------------------------|
-------------6--6--------|--4-------4--------4-----|-------------3--3-------|
----------6--------6-----|-------------4--4-----4--|----------3--------3----|
--L-------------------4--|-------------------------|--1-------------------1-|


  Q    E  E  E  E  E  E     Q    E  E  E  E  E  E     Q    E  E  E  E  E  E   
------------------------|-------------------------|-------------------------|
------------4--4--------|-------------3--3--------|-------------------------|
---------4--------4-----|----------3--------3-----|--6-------6--------6-----|
-2-------------------2--|--1-------------------1--|-------------6--6-----6--|


  Q    E  E  E  E  E  E     Q    E  E  E  E  E  E     Q    E  E  E  E  E  E   
------------------------|-------------------------|-------------------------|
-3----------------------|-------------------------|--3----------------------|
---------3--------------|--6-------6--------6-----|----------3--------------|
------------1--1-----1--|-------------6--6-----6--|-------------1--1-----1--|


  Q    E  E  E  E  E  E     Q    E  E  E  E  E  E     Q    E  E  E  E  E  E   
------------------------|-------------------------|-------------------------|
---------4-----------3--|-------------------------|-------------------------|
------------------------|--6-------6--------------|--4-------4--------------|
-2----------1--1--------|-------------4--4-----4--|-------------4--4-----4--|


  E  E  Q    H           Q    E  E  E  E  E  E     Q    E  E  E  E  E  E   
----------------------|-------------------------|-------------------------|
----------------------|-------------------------|----------------------6--|
--4-------------------|--4-------4-----------4--|--L-------4--------------|
----------------------|-------------4--4--------|-------------4--4--------|


  Q    E  E  E  E  E  E     Q    E  E  E  E  E  E     Q    E  E  E  E  E  E   
------------------------|-------------------------|-------------------------|
------------------------|----------------------6--|-------------------------|
-4-------4-----------4--|--L-------4--------------|--4-------4-----------4--|
------------4--4--------|-------------4--4--------|-------------4--4--------|


  Q    E  E  E  E  E  E     Q    E  E  E  E  E  E     Q    E  E  E  E  E  E   
------------------------|-------------------------|-------------------------|
------------------------|--6-------6--------------|-------------6--6--------|
-L-------4--------------|-------------6--6--------|----------6--------6-----|
------------4--4-----4--|----------------------4--|--L-------------------4--|


  Q    E  E  E  E  E  E     Q    E  E  E  E  E  E     Q    E  E  E  E  E  E   
------------------------|-------------------------|-------------------------|
-4-------4--------4-----|-------------3--3--------|-------------4--4--------|
------------4--4-----4--|----------3--------3-----|----------4--------4-----|
------------------------|--1-------------------1--|--2-------------------2--|


  Q    E  E  E  E  E  E     Q    E  E  E  E  E  E     Q    E  E  E  E  E  E   
------------------------|-------------------------|-------------------------|
------------3--3--------|-------------------------|--3-------3--------------|
---------3--------3-----|--6-------6--------6-----|-------------3--3-----3--|
-1-------------------1--|-------------6--6-----6--|-------------------------|


  Q    E  E  E  E  E  E     Q    E  E  E  E  E  E     Q    E  E  E  E  E  E   
------------------------|-------------------------|-------------------------|
------------------------|--3----------------------|----------4-----------3--|
-6-------6--------6-----|----------3--------------|-------------------------|
------------6--6-----6--|-------------1--1-----1--|--2----------1--1--------|


  Q    E  E  E  E  E  E     Q    E  E  E  E  E  E     E  E  Q    Q    E  E   
-------------------------|-------------------------|------------------------|
-------------------------|-------------------------|------------------------|
--6-------6--------------|--4-------4--------------|--4------------------4--|
-------------4--4-----4--|-------------4--4-----4--|------------------------|


  Q    E  E  E  E  E  E     Q    E  E  E  E  E  E     Q    E  E  E  E  E  E   
------------------------|-------------------------|-------------------------|
-4-------4--------4-----|--3-------3--------3-----|--4-------4--------4-----|
------------4--4--------|-------------3--3--------|-------------4--4--------|
------------------------|-------------------------|-------------------------|


  Q    E  E  E  E  E  E     Q    E  E  E  E  E  E     Q    E  E  E  E  E  E   
------------------------|-------------------------|-------------------------|
-3-------3--------3-----|-------------------------|--3----------------------|
------------3--3--------|--6----------6--6--------|----------3--------------|
------------------------|----------6-----------6--|-------------1--1-----x--|


  Q    E  E  Q    E  E     Q    E  E  Q    E  E     Q    E  E  E  E  E  E   
------------------------|------------------------|-------------------------|
--4-------4--3-------3--|------------------------|-------------------------|
------------------------|--6-------6-------------|--4-------4-----------4--|
------------------------|-------------4-------4--|-------------4--4--------|


  Q    E  E  E  E  E  E     Q    E  E  E  E  E  E     Q    E  E  E  E  E  E   
------------------------|-------------------------|-------------------------|
---------------------6--|-------------------------|----------------------6--|
-L-------4--------------|--4-------4-----------4--|--L-------4--------------|
------------4--4--------|-------------4--4--------|-------------4--4--------|


  Q    E  E  E  E  E  E     Q    E  E  E  E  E  E     Q    E  E  E  E  E  E   
------------------------|-------------------------|-------------------------|
------------------------|-------------------------|--6-------6--------------|
-4-------4-----------4--|--L-------4--------------|-------------6--6--------|
------------4--4--------|-------------4--4-----4--|----------------------4--|


  Q    E  E  E  E  E  E     Q    E  E  E  E  E  E     Q    E  E  E  E  E  E   
------------------------|-------------------------|-------------------------|
------------6--6--------|--4-------4--------4-----|-------------3--3--------|
---------6--------6-----|-------------4--4-----4--|----------3--------3-----|
-L-------------------4--|-------------------------|--1-------------------1--|


  Q    E  E  E  E  E  E     Q    E  E  E  E  E  E     Q    E  E  E  E  E  E   
------------------------|-------------------------|-------------------------|
------------4--4--------|-------------3--3--------|-------------------------|
---------4--------4-----|----------3--------3-----|--6-------6--------6-----|
-2-------------------2--|--1-------------------1--|-------------6--6-----6--|


  Q    E  E  E  E  E  E     Q    E  E  E  E  E  E     Q    E  E  E  E  E  E   
------------------------|-------------------------|-------------------------|
-3----------------------|-------------------------|--3----------------------|
---------3--------------|--6-------6--------6-----|----------3--------------|
------------1--1-----1--|-------------6--6-----6--|-------------1--1-----1--|


  Q    E  E  E  E  E  E     Q    E  E  Q    Q       Q    E  E  E  E  E  E   
-------------------------|-----------------------|-------------------------|
----------4-----------3--|------------------3----|----------4-----------3--|
-------------------------|--6-------6--L---------|-------------------------|
--2----------1--1--------|-----------------------|--2----------1--L--------|


  Q    E  E  Q    E  E     Q    E  E  E  E  E  E     Q    E  E  Q    E  E   
------------------------|-------------------------|------------------------|
------------------------|----------4-----------3--|------------------------|
--6-------6--L----L-----|-------------------------|--6---------------------|
---------------------1--|--2----------1--1--------|----------x--4-------4--|


  Q    E  E  E  E  E  E     Q    E  E  E  E  E  E     Q    E  E  E  E  E  E   
------------------------|-------------------------|-------------------------|
------------------------|----------------------6--|-------------------------|
-4-------4-----------4--|--L-------4--------------|--4-------4-----------4--|
------------4--4--------|-------------4--4--------|-------------4--4--------|


  Q    E  E  E  E  E  E     Q    E  E  E  E  E  E     Q    E  E  E  E  E  E   
------------------------|-------------------------|-------------------------|
---------------------6--|-------------------------|----------------------6--|
-L-------4--------------|--4-------4-----------4--|--L-------4--------------|
------------4--4--------|-------------4--4--------|-------------4--4--------|


  Q    E  E  E  E  E  E     Q    E  E  E  E  E  E     Q    E  E  E  E  E  E   
------------------------|-------------------------|-------------------------|
------------------------|----------------------6--|-------------------------|
-4-------4-----------4--|--L-------4--------------|--4-------4-----------4--|
------------4--4--------|-------------4--4--------|-------------4--4--------|


  Q    E  E  E  E  E  E     Q    E  E  E  E  E  E     Q    E  E  E  E  E  E    
------------------------|-------------------------|-------------------------|
---------------------6--|-------------------------|----------------------6--|
-L-------4--------------|--4-------4-----------4--|--L-------4--------------|
------------4--4--------|-------------4--4--------|-------------4--4--------|




Duration Legend
---------------
W - whole
H - half
Q - quarter
E - 8th
S - 16th
T - 32nd
X - 64th
. - note dotted
|-n-|  - n-tuplets

            
            
Suggest correction
Creating personal tab
Creating personal tab
You can edit any tab online and save it as your Personal.

You can edit, replace or remove any tab part or add personal notes – all changes will be seen only by you.

Personal tabs can be accessed anytime from any device, even offline.
Learn more »
Give kudos to tab author, rate the tab!
1 2 3 4 5
comments
print report bad tab
guest
You may want to rate the tab now too:
select rating
Wanna post a correction for this tab? Suggest correction