Oops, an error
Loading. Please wait.

Ancient Skin bass

version 1
version 1

Whole song

Interactive

by Mayhem
625 views 1 this week
no commentswrite comment
1 2 3 4 5
3 more votes to show rating
add to favorites
×
Save as Personal and add changes to this tab that will be seen only by you. Learn more ›
×
You can save this tab as Personal to edit and correct it or add notes. All changes will be seen only by you. Learn more »
launch autoscroll
font size
0
reset
guitar tuner
edit
Autoscroll
slow
fast
+/-
esc
set tempo
stop
Author
-------------------------------------------------------------------------------
			     Ancient Skin - Mayhem
-------------------------------------------------------------------------------
Tabbed by: krouasan
Email: krouasanobios@hotmail.com

Tuning:D G C F (one step down)



     W                   H        H         
F||-------------------|--------------------|
C||-------------------|-----------1--------|
G||-------------------|--2-----------------|
D||--3----------------|--------------------|


  H        H           W                 
--------------------|-------------------|
--0-----------------|-------------------|
-----------1--------|--L----------------|
--------------------|-------------------|


  W                   H        H         
-------------------|--------------------|
-------------------|-----------0--------|
-------------------|--1-----------------|
--3----------------|--------------------|


  W                   W                 
-------------------|-------------------|
-------------------|-------------------|
--4----------------|--L----------------|
-------------------|-------------------|


  W                   H        H         
-------------------|--------------------|
-------------------|-----------1--------|
-------------------|--2-----------------|
--3----------------|--------------------|


  H        H           W                 
--------------------|-------------------|
--0-----------------|-------------------|
-----------1--------|--L----------------|
--------------------|-------------------|


  W                   H        H         
-------------------|--------------------|
-------------------|-----------0--------|
-------------------|--1-----------------|
--3----------------|--------------------|


  W                   W                 
-------------------|-------------------|
-------------------|-------------------|
--4----------------|--L----------------|
-------------------|-------------------|


  W                   H        H         
-------------------|--------------------|
-------------------|--------------------|
--3----------------|--L--------2--------|
-------------------|--------------------|


  W                   Q    H.            
-------------------|--------------------|
-------------------|--------------------|
--3----------------|--L----2------------|
-------------------|--------------------|


  W                   Q    H.            
-------------------|--------------------|
-------------------|--------------------|
--3----------------|--L----2------------|
-------------------|--------------------|


  W                   W                 
-------------------|-------------------|
-------------------|-------------------|
--3----------------|--2----------------|
-------------------|-------------------|


  W                   H        H         
-------------------|--------------------|
-------------------|-----------1--------|
-------------------|--2-----------------|
--3----------------|--------------------|


  H        H           W                 
--------------------|-------------------|
--0-----------------|-------------------|
-----------1--------|--L----------------|
--------------------|-------------------|


  W                   H        H         
-------------------|--------------------|
-------------------|-----------0--------|
-------------------|--1-----------------|
--3----------------|--------------------|


  W                   W                 
-------------------|-------------------|
-------------------|-------------------|
--4----------------|--L----------------|
-------------------|-------------------|


  W                   H        H         
-------------------|--------------------|
-------------------|-----------1--------|
-------------------|--2-----------------|
--3----------------|--------------------|


  H        H           W                 
--------------------|-------------------|
--0-----------------|-------------------|
-----------1--------|--L----------------|
--------------------|-------------------|


  W                   H        H         
-------------------|--------------------|
-------------------|-----------0--------|
-------------------|--1-----------------|
--3----------------|--------------------|


  W                   W                 
-------------------|-------------------|
-------------------|-------------------|
--4----------------|--L----------------|
-------------------|-------------------|


  W                   H        H         
-------------------|--------------------|
-------------------|--------------------|
--3----------------|--L--------2--------|
-------------------|--------------------|


  W                   Q    H.            
-------------------|--------------------|
-------------------|--------------------|
--3----------------|--L----2------------|
-------------------|--------------------|


  W                   Q    H.            
-------------------|--------------------|
-------------------|--------------------|
--3----------------|--L----2------------|
-------------------|--------------------|


  H.           Q       W                 
--------------------|-------------------|
--------------------|-------------------|
--3------------4----|--L----------------|
--------------------|-------------------|


  W                   H        H         
-------------------|--------------------|
-------------------|--------------------|
--3----------------|--L--------2--------|
-------------------|--------------------|


  W                   Q    H.            
-------------------|--------------------|
-------------------|--------------------|
--3----------------|--L----2------------|
-------------------|--------------------|


  W                   Q    H.            
-------------------|--------------------|
-------------------|--------------------|
--3----------------|--L----2------------|
-------------------|--------------------|


  H.           Q       W                 
--------------------|-------------------|
--------------------|-------------------|
--3------------4----|--L----------------|
--------------------|-------------------|


  W                   H.           Q     
-------------------|--------------------|
-------------------|--------------------|
--0----------------|--L-----------------|
-------------------|---------------0----|


  H        H           H        H         
--------------------|--------------------|
--------------------|--------------------|
--------------------|--------------------|
--L-----------------|-----------3--------|


  W                   Q    H.            
-------------------|--------------------|
-------------------|--------------------|
-------------------|-------2------------|
--L----------------|--L-----------------|


  W                   W                 
-------------------|-------------------|
-------------------|-------------------|
-------------------|--0----------------|
--1----------------|-------------------|


  H.           Q       H        H         
--------------------|--------------------|
--------------------|--------------------|
--L-----------------|--------------------|
---------------0----|--L-----------------|


  H        H           W                 
--------------------|-------------------|
--------------------|-------------------|
--------------------|-------------------|
-----------3--------|--L----------------|


  Q    H.              W                 
--------------------|-------------------|
--------------------|-------------------|
-------2------------|-------------------|
--L-----------------|--1----------------|


  W                   H.           Q     
-------------------|--------------------|
-------------------|--------------------|
--0----------------|--L-----------------|
-------------------|---------------0----|


  H        H           H        H         
--------------------|--------------------|
--------------------|--------------------|
--------------------|--------------------|
--L-----------------|-----------3--------|


  W                   Q    H.            
-------------------|--------------------|
-------------------|--------------------|
-------------------|-------2------------|
--L----------------|--L-----------------|


  W                   W                 
-------------------|-------------------|
-------------------|-------------------|
-------------------|--0----------------|
--1----------------|-------------------|


  H.           Q       H        H         
--------------------|--------------------|
--------------------|--------------------|
--L-----------------|--------------------|
---------------0----|--L-----------------|


  H        H           W                 
--------------------|-------------------|
--------------------|-------------------|
--------------------|-------------------|
-----------3--------|--L----------------|


  Q    H.              W                 
--------------------|-------------------|
--------------------|-------------------|
-------2------------|-------------------|
--L-----------------|--1----------------|


  W                   Q     H         Q     
-------------------|-----------------------|
-------------------|-----------------------|
-------------------|-----------------------|
--0----------------|--L----(0)--------8----|


  W                   E   Q     H         E   
-------------------|-------------------------|
-------------------|-------------------------|
-------------------|-------------------------|
--L----------------|--L--10----11---------L--|


   W                    E   H        Q.      
--------------------|-----------------------|
--------------------|-----------------------|
--------------------|-----------------------|
---L----------------|---L--12--------2------|


  H.           E  E     Q.     H        E   
---------------------|---------------------|
---------------------|---------------------|
---------------------|---------------------|
--L------------L--0--|--L------8--------L--|


  H        E  Q.        W                 
---------------------|-------------------|
---------------------|-------------------|
---------------------|-------------------|
--L--------L--0------|--4----------------|


  H        E   Q.        W                 
----------------------|-------------------|
----------------------|-------------------|
----------------------|-------------------|
--L--------L--12------|--3----------------|


  H.           Q       Q    H.            
--------------------|--------------------|
--------------------|-------7------------|
--------------------|--------------------|
--L------------1----|--L-----------------|


  W                   Q    Q    Q    Q     
-------------------|----------------------|
--L----------------|----------------------|
-------------------|----------------------|
-------------------|--0----0----0----2----|


  W                   W                 
-------------------|-------------------|
-------------------|-------------------|
-------------------|-------------------|
--L----------------|--L----------------|


  W                   H         
-------------------|-----------|
-------------------|--5--------|
-------------------|-----------|
--L----------------|-----------|


  W                   H.           Q     
-------------------|--------------------|
-------------------|--------------------|
--0----------------|--L-----------------|
-------------------|---------------0----|


  H        H           H        H         
--------------------|--------------------|
--------------------|--------------------|
--------------------|--------------------|
--L-----------------|-----------3--------|


  W                   Q    H.            
-------------------|--------------------|
-------------------|--------------------|
-------------------|-------2------------|
--L----------------|--L-----------------|


  W                   W                 
-------------------|-------------------|
-------------------|-------------------|
-------------------|--0----------------|
--1----------------|-------------------|


  H.           Q       H        H         
--------------------|--------------------|
--------------------|--------------------|
--L-----------------|--------------------|
---------------0----|--L-----------------|


  H        H           W                 
--------------------|-------------------|
--------------------|-------------------|
--------------------|-------------------|
-----------3--------|--L----------------|


  Q    H.              W                 
--------------------|-------------------|
--------------------|-------------------|
-------2------------|-------------------|
--L-----------------|--1----------------|


  W                   H.           Q     
-------------------|--------------------|
-------------------|--------------------|
--0----------------|--L-----------------|
-------------------|---------------0----|


  H        H           H        H         
--------------------|--------------------|
--------------------|--------------------|
--------------------|--------------------|
--L-----------------|-----------3--------|


  W                   Q    H.            
-------------------|--------------------|
-------------------|--------------------|
-------------------|-------2------------|
--L----------------|--L-----------------|


  W                   W                 
-------------------|-------------------|
-------------------|-------------------|
-------------------|--0----------------|
--1----------------|-------------------|


  H.           Q       H        H         
--------------------|--------------------|
--------------------|--------------------|
--L-----------------|--------------------|
---------------0----|--L-----------------|


  H        H           W                 
--------------------|-------------------|
--------------------|-------------------|
--------------------|-------------------|
-----------3--------|--L----------------|


  Q    H.              W                 
--------------------|-------------------|
--------------------|-------------------|
-------2------------|-------------------|
--L-----------------|--1----------------|


  W                    W                 
-------------------|--------------------|
-------------------|--10----------------|
-------------------|--------------------|
--0----------------|--------------------|


  H.           Q       Q    Q.     Q.      
--------------------|---------------------|
--6------------7----|--L----4------2------|
--------------------|---------------------|
--------------------|---------------------|


  H         H            Q.     H        E   
---------------------|----------------------|
--L--------10--------|---L------6--------L--|
---------------------|----------------------|
---------------------|----------------------|


  Q    H        Q       E  Q.     H         
---------------------|---------------------|
--L-------------0----|--L--0---------------|
-------0-------------|---------------------|
---------------------|------------0--------|


  Q        W                   H.           Q     
-------|--------------------|--------------------|
-------|--10----------------|--6------------7----|
-------|--------------------|--------------------|
--L----|--------------------|--------------------|


  Q    Q.     Q.        H         H         
---------------------|---------------------|
--L----4------2------|--L--------10--------|
---------------------|---------------------|
---------------------|---------------------|


   Q.     H        E     Q    H        Q     
----------------------|---------------------|
---L------6--------L--|--L-------------0----|
----------------------|-------0-------------|
----------------------|---------------------|


  E  Q.     H           Q     
---------------------|-------|
--L--0---------------|-------|
---------------------|-------|
------------0--------|--L----|


   W                   H.           Q     
--------------------|--------------------|
--10----------------|--6------------7----|
--------------------|--------------------|
--------------------|--------------------|


  Q    Q.     Q.        H         H         
---------------------|---------------------|
--L----4------2------|--L--------10--------|
---------------------|---------------------|
---------------------|---------------------|


   Q.     H        E     Q    H        Q     
----------------------|---------------------|
---L------6--------L--|--L-------------0----|
----------------------|-------0-------------|
----------------------|---------------------|


  E  Q.     H           Q     
---------------------|-------|
--L--0---------------|-------|
---------------------|-------|
------------0--------|--L----|


   W                   H.           Q     
--------------------|--------------------|
--10----------------|--6------------7----|
--------------------|--------------------|
--------------------|--------------------|


  Q    Q.     Q.        H         H         
---------------------|---------------------|
--L----4------2------|--L--------10--------|
---------------------|---------------------|
---------------------|---------------------|


   Q.     H        E                           
----------------------|-------|-------|-------|
---L------6--------L--|-------|-------|-------|
----------------------|-------|-------|-------|
----------------------|-------|-------|-------|


-------|-------|-------|-------|-------|-------|
-------|-------|-------|-------|-------|-------|
-------|-------|-------|-------|-------|-------|
-------|-------|-------|-------|-------|-------|


-------|-------|-------|-------|-------|-------|
-------|-------|-------|-------|-------|-------|
-------|-------|-------|-------|-------|-------|
-------|-------|-------|-------|-------|-------|


-------|-------|-------|-------|-------|-------|
-------|-------|-------|-------|-------|-------|
-------|-------|-------|-------|-------|-------|
-------|-------|-------|-------|-------|-------|


-------|-------|-------|-------|-------|-------|
-------|-------|-------|-------|-------|-------|
-------|-------|-------|-------|-------|-------|
-------|-------|-------|-------|-------|-------|


-------|-------|-------|-------|-------|-------|
-------|-------|-------|-------|-------|-------|
-------|-------|-------|-------|-------|-------|
-------|-------|-------|-------|-------|-------|


-------|-------||
-------|-------||
-------|-------||
-------|-------||




Duration Legend
---------------
W - whole
H - half
Q - quarter
E - 8th
S - 16th
T - 32nd
X - 64th
. - note dotted
|-n-|  - n-tuplets


Tablature Legend
----------------
L - tied note
x - dead note
g - grace note
(n) - ghost note
> - accentuded note
NH - natural harmonic
AH - artificial harmonic
TH - tapped harmonic
SH - semi harmonic
PH - pitch harmonic
h - hammer on
p - pull off
b - bend
br - bendRelease
pb - preBend
pbr - preBendRelease
brb - bendReleaseBend
\n/ - tremolo bar dip
\n - tremolo bar dive
-/n - tremolo bar Release up
/n\ - tremolo bar inverted dip
/n - tremolo bar return
-\n - tremolo bar Release down
S - shift slide
s - legato slide
/ -  slide into from below or out of upwards
\ -  slide into from above or out of downwards
~ - vibrato
W - wide vibrato
tr - trill
TP - tremolo picking
T - tapping
S - slap
P - pop
< - fade in
^ - brush up
v - brush down

            
            
Suggest correction
Creating personal tab
Creating personal tab
You can edit any tab online and save it as your Personal.

You can edit, replace or remove any tab part or add personal notes – all changes will be seen only by you.

Personal tabs can be accessed anytime from any device, even offline.
Learn more »
Give kudos to tab author, rate the tab!
1 2 3 4 5
comments
print report bad tab
guest
You may want to rate the tab now too:
select rating
Wanna post a correction for this tab? Suggest correction