Oops, an error
Loading. Please wait.

Ancient Skin tab

version 2
version 2

Whole song

Interactive

by Mayhem
685 views 1 this week
no commentswrite comment
1 2 3 4 5
3 more votes to show rating
add to favorites
×
Save as Personal and add changes to this tab that will be seen only by you. Learn more ›
×
You can save this tab as Personal to edit and correct it or add notes. All changes will be seen only by you. Learn more »
launch autoscroll
font size
0
reset
how to read this tab
guitar tuner
edit
Autoscroll
slow
fast
+/-
esc
set tempo
stop
Author
-------------------------------------------------------------------------------
                             Ancient Skin - Mayhem
-------------------------------------------------------------------------------
Tabbed by: krouasan
Email: krouasanobios@hotmail.com

Tuning:D G C F A D (one step down)



     W                   H        H         
D||-------------------|--------------------|
A||-------------------|--------------------|
F||-------------------|-----------3--------|
C||-------------------|--4--------1--------|
G||--5----------------|--2-----------------|
D||--3----------------|--------------------|


  H        H           W                 
--------------------|-------------------|
--------------------|-------------------|
--2-----------------|-------------------|
--0--------3--------|--L----------------|
-----------1--------|--L----------------|
--------------------|-------------------|


  W                   H        H         
-------------------|--------------------|
-------------------|--------------------|
-------------------|-----------2--------|
-------------------|--3--------0--------|
--5----------------|--1-----------------|
--3----------------|--------------------|


  W                   W                 
-------------------|-------------------|
-------------------|-------------------|
-------------------|-------------------|
--6----------------|--L----------------|
--4----------------|--L----------------|
-------------------|-------------------|


  W                   H        H         
-------------------|--------------------|
-------------------|--------------------|
-------------------|-----------3--------|
-------------------|--4--------1--------|
--5----------------|--2-----------------|
--3----------------|--------------------|


  H        H           W                 
--------------------|-------------------|
--------------------|-------------------|
--2-----------------|-------------------|
--0--------3--------|--L----------------|
-----------1--------|--L----------------|
--------------------|-------------------|


  W                   H        H         
-------------------|--------------------|
-------------------|--------------------|
-------------------|-----------2--------|
-------------------|--3--------0--------|
--5----------------|--1-----------------|
--3----------------|--------------------|


  W                   W                 
-------------------|-------------------|
-------------------|-------------------|
-------------------|-------------------|
--6----------------|--L----------------|
--4----------------|--L----------------|
-------------------|-------------------|


  W                   H        H         
-------------------|--------------------|
-------------------|--------------------|
-------------------|--------------------|
--5----------------|--L--------4--------|
--3----------------|--L--------2--------|
-------------------|--------------------|


  W                   Q    H.            
-------------------|--------------------|
-------------------|--------------------|
-------------------|--------------------|
--5----------------|--L----4------------|
--3----------------|--L----2------------|
-------------------|--------------------|


  W                   Q    H.            
-------------------|--------------------|
-------------------|--------------------|
-------------------|--------------------|
--5----------------|--L----4------------|
--3----------------|--L----2------------|
-------------------|--------------------|


  W                   W                 
-------------------|-------------------|
-------------------|-------------------|
-------------------|-------------------|
--5----------------|--4----------------|
--3----------------|--2----------------|
-------------------|-------------------|


  W                   H        H         
-------------------|--------------------|
-------------------|--------------------|
-------------------|-----------3--------|
-------------------|--4--------1--------|
--5----------------|--2-----------------|
--3----------------|--------------------|


  H        H           W                 
--------------------|-------------------|
--------------------|-------------------|
--2-----------------|-------------------|
--0--------3--------|--L----------------|
-----------1--------|--L----------------|
--------------------|-------------------|


  W                   H        H         
-------------------|--------------------|
-------------------|--------------------|
-------------------|-----------2--------|
-------------------|--3--------0--------|
--5----------------|--1-----------------|
--3----------------|--------------------|


  W                   W                 
-------------------|-------------------|
-------------------|-------------------|
-------------------|-------------------|
--6----------------|--L----------------|
--4----------------|--L----------------|
-------------------|-------------------|


  W                   H        H         
-------------------|--------------------|
-------------------|--------------------|
-------------------|-----------3--------|
-------------------|--4--------1--------|
--5----------------|--2-----------------|
--3----------------|--------------------|


  H        H           W                 
--------------------|-------------------|
--------------------|-------------------|
--2-----------------|-------------------|
--0--------3--------|--L----------------|
-----------1--------|--L----------------|
--------------------|-------------------|


  W                   H        H         
-------------------|--------------------|
-------------------|--------------------|
-------------------|-----------2--------|
-------------------|--3--------0--------|
--5----------------|--1-----------------|
--3----------------|--------------------|


  W                   W                 
-------------------|-------------------|
-------------------|-------------------|
-------------------|-------------------|
--6----------------|--L----------------|
--4----------------|--L----------------|
-------------------|-------------------|


  W                   H        H         
-------------------|--------------------|
-------------------|--------------------|
-------------------|--------------------|
--5----------------|--L--------4--------|
--3----------------|--L--------2--------|
-------------------|--------------------|


  W                   Q    H.            
-------------------|--------------------|
-------------------|--------------------|
-------------------|--------------------|
--5----------------|--L----4------------|
--3----------------|--L----2------------|
-------------------|--------------------|


  W                   Q    H.            
-------------------|--------------------|
-------------------|--------------------|
-------------------|--------------------|
--5----------------|--L----4------------|
--3----------------|--L----2------------|
-------------------|--------------------|


  H.           Q       W                 
--------------------|-------------------|
--------------------|-------------------|
--------------------|-------------------|
--5------------6----|--L----------------|
--3------------4----|--L----------------|
--------------------|-------------------|


  W                   H        H         
-------------------|--------------------|
-------------------|--------------------|
-------------------|--------------------|
--5----------------|--L--------4--------|
--3----------------|--L--------2--------|
-------------------|--------------------|


  W                   Q    H.            
-------------------|--------------------|
-------------------|--------------------|
-------------------|--------------------|
--5----------------|--L----4------------|
--3----------------|--L----2------------|
-------------------|--------------------|


  W                   Q    H.            
-------------------|--------------------|
-------------------|--------------------|
-------------------|--------------------|
--5----------------|--L----4------------|
--3----------------|--L----2------------|
-------------------|--------------------|


  H.           Q       W                 
--------------------|-------------------|
--------------------|-------------------|
--------------------|-------------------|
--5------------6----|--L----------------|
--3------------4----|--L----------------|
--------------------|-------------------|


  W                   H.           Q     
-------------------|--------------------|
-------------------|--------------------|
--2----------------|--L-----------------|
--2----------------|--L------------2----|
--0----------------|--L------------2----|
-------------------|---------------0----|


  H         S  S  S  Q     S  
-----------------------------|
-----------------10----------|
--------------10--L-10-----L-|
--L--------10--L--L--L-----L-|
--L--------------------------|
--L--------------------------|


   S  S  Q.     H           W                 
-------------------------|-------------------|
-------------------------|-------------------|
---L-14--L---------------|-------------------|
---L----14------5--------|--L----------------|
----------------5--------|--L----------------|
----------------3--------|--L----------------|


  Q    H.              W                 
--------------------|-------------------|
--------------------|-------------------|
-------4------------|-------------------|
--L----4------------|--3----------------|
--L----2------------|--3----------------|
--L-----------------|--1----------------|


  W                   H.           Q     
-------------------|--------------------|
-------------------|--------------------|
--2----------------|--L-----------------|
--2----------------|--L------------2----|
--0----------------|--L------------2----|
-------------------|---------------0----|


  H         S  S  S  Q     S  
-----------------------------|
-----------------10----------|
--------------10--L-10-----L-|
--L--------10--L--L--L-----L-|
--L--------------------------|
--L--------------------------|


   S  S  Q.     H           W                 
-------------------------|-------------------|
-------------------------|-------------------|
---L-14--L---------------|-------------------|
---L----14------5--------|--L----------------|
----------------5--------|--L----------------|
----------------3--------|--L----------------|


  Q    H.              W                 
--------------------|-------------------|
--------------------|-------------------|
-------4------------|-------------------|
--L----4------------|--3----------------|
--L----2------------|--3----------------|
--L-----------------|--1----------------|


  W                   H.           Q     
-------------------|--------------------|
-------------------|--------------------|
--2----------------|--L-----------------|
--2----------------|--L------------2----|
--0----------------|--L------------2----|
-------------------|---------------0----|


  H         S  S  S  Q     S  
-----------------------------|
-----------------10----------|
--------------10--L-10-----L-|
--L--------10--L--L--L-----L-|
--L--------------------------|
--L--------------------------|


   S  S  Q.     H           W                 
-------------------------|-------------------|
-------------------------|-------------------|
---L-14--L---------------|-------------------|
---L----14------5--------|--L----------------|
----------------5--------|--L----------------|
----------------3--------|--L----------------|


  Q    H.              W                 
--------------------|-------------------|
--------------------|-------------------|
-------4------------|-------------------|
--L----4------------|--3----------------|
--L----2------------|--3----------------|
--L-----------------|--1----------------|


  W                   H.           Q     
-------------------|--------------------|
-------------------|--------------------|
--2----------------|--L-----------------|
--2----------------|--L------------2----|
--0----------------|--L------------2----|
-------------------|---------------0----|


  H         S  S  S  Q     S  
-----------------------------|
-----------------10----------|
--------------10--L-10-----L-|
--L--------10--L--L--L-----L-|
--L--------------------------|
--L--------------------------|


   S  S  Q.     H           W                 
-------------------------|-------------------|
-------------------------|-------------------|
---L-14--L---------------|-------------------|
---L----14------5--------|--L----------------|
----------------5--------|--L----------------|
----------------3--------|--L----------------|


  Q    H.              W                 
--------------------|-------------------|
--------------------|-------------------|
-------4------------|-------------------|
--L----4------------|--3----------------|
--L----2------------|--3----------------|
--L-----------------|--1----------------|


  W                   Q     H          Q     
-------------------|-------------------8----|
-------------------|-------------------8----|
-------------------|-------------------8----|
--2----------------|--L---------------10----|
--2----------------|--L----(2)--------10----|
--0----------------|--L----(0)---------8----|


   W                    E    Q     H         E   
---L----------------|---Ls--10----11---------L--|
---L----------------|---Ls--10----11---------L--|
---L----------------|---Ls--10----11---------L--|
---L----------------|---Ls--12----13---------L--|
---L----------------|---Ls--12----13---------L--|
---L----------------|---Ls--10----11---------L--|


   W                    E   H        Q.      
---L----------------|---L--12--------2------|
---L----------------|---L--12--------2------|
---L----------------|---L--12--------2------|
---L----------------|---L--14--------4------|
---L----------------|---L--14--------4------|
---L----------------|---L--12--------2------|


  H.           E  E     Q.      H         E   
--L------------L--0--|--L-------8---------L--|
--L------------L--0--|--L-------8---------L--|
--L------------L--0--|--L-------8---------L--|
--L------------L--2--|--L------10---------L--|
--L------------L--2--|--L------10---------L--|
--L------------L--0--|----------8---------L--|


   H         E  Q.        W                 
---L---------L--0------|--4----------------|
---L---------L--0------|--4----------------|
---L---------L--0------|--4----------------|
---L---------L--2------|--6----------------|
---L---------L--2------|--6----------------|
---L---------L--0------|--4----------------|


  H        E   Q.        W                 
--L--------L--12------|--3----------------|
--L--------L--12------|--3----------------|
--L--------L--12------|--3----------------|
--L--------L--14------|--5----------------|
--L--------L--14------|--5----------------|
--L--------L--12------|--3----------------|


  H.           Q       Q     H.            
--L------------1----|--L-----8------------|
--L------------1----|--L----10------------|
--L------------1----|--L-----9------------|
--L------------3----|--L-----7------------|
--L------------3----|--L------------------|
--L------------1----|--L------------------|


   W                   Q    Q    Q    Q     
---L----------------|----------------------|
---L----------------|----------------------|
---L----------------|----------------------|
---L----------------|----------------------|
--------------------|--2----2----2----4----|
--------------------|--0----0----0----2----|


  W                   W                 
-------------------|-------------------|
-------------------|-------------------|
-------------------|-------------------|
-------------------|-------------------|
--L----------------|--L----------------|
--L----------------|--L----------------|


  W                   H         
-------------------|--6--------|
-------------------|--8--------|
-------------------|--7--------|
-------------------|--5--------|
--L----------------|-----------|
--L----------------|-----------|


  W                   H.           Q     
-------------------|--------------------|
-------------------|--------------------|
--2----------------|--L-----------------|
--2----------------|--L------------2----|
--0----------------|--L------------2----|
-------------------|---------------0----|


  H         S  S  S  Q     S  
-----------------------------|
-----------------10----------|
--------------10--L-10-----L-|
--L--------10--L--L--L-----L-|
--L--------------------------|
--L--------------------------|


   S  S  Q.     H           W                 
-------------------------|-------------------|
-------------------------|-------------------|
---L-14--L---------------|-------------------|
---L----14------5--------|--L----------------|
----------------5--------|--L----------------|
----------------3--------|--L----------------|


  Q    H.              W                 
--------------------|-------------------|
--------------------|-------------------|
-------4------------|-------------------|
--L----4------------|--3----------------|
--L----2------------|--3----------------|
--L-----------------|--1----------------|


  W                   H.           Q     
-------------------|--------------------|
-------------------|--------------------|
--2----------------|--L-----------------|
--2----------------|--L------------2----|
--0----------------|--L------------2----|
-------------------|---------------0----|


  H         S  S  S  Q     S  
-----------------------------|
-----------------10----------|
--------------10--L-10-----L-|
--L--------10--L--L--L-----L-|
--L--------------------------|
--L--------------------------|


   S  S  Q.     H           W                 
-------------------------|-------------------|
-------------------------|-------------------|
---L-14--L---------------|-------------------|
---L----14------5--------|--L----------------|
----------------5--------|--L----------------|
----------------3--------|--L----------------|


  Q    H.              W                 
--------------------|-------------------|
--------------------|-------------------|
-------4------------|-------------------|
--L----4------------|--3----------------|
--L----2------------|--3----------------|
--L-----------------|--1----------------|


  W                   H.           Q     
-------------------|--------------------|
-------------------|--------------------|
--2----------------|--L-----------------|
--2----------------|--L------------2----|
--0----------------|--L------------2----|
-------------------|---------------0----|


  H         S  S  S  Q     S  
-----------------------------|
-----------------10----------|
--------------10--L-10-----L-|
--L--------10--L--L--L-----L-|
--L--------------------------|
--L--------------------------|


   S  S  Q.     H           W                 
-------------------------|-------------------|
-------------------------|-------------------|
---L-14--L---------------|-------------------|
---L----14------5--------|--L----------------|
----------------5--------|--L----------------|
----------------3--------|--L----------------|


  Q    H.              W                 
--------------------|-------------------|
--------------------|-------------------|
-------4------------|-------------------|
--L----4------------|--3----------------|
--L----2------------|--3----------------|
--L-----------------|--1----------------|


  W                   H.           Q     
-------------------|--------------------|
-------------------|--------------------|
--2----------------|--L-----------------|
--2----------------|--L------------2----|
--0----------------|--L------------2----|
-------------------|---------------0----|


  H         S  S  S  Q     S  
-----------------------------|
-----------------10----------|
--------------10--L-10-----L-|
--L--------10--L--L--L-----L-|
--L--------------------------|
--L--------------------------|


   S  S  Q.     H           W                 
-------------------------|-------------------|
-------------------------|-------------------|
---L-14--L---------------|-------------------|
---L----14------5--------|--L----------------|
----------------5--------|--L----------------|
----------------3--------|--L----------------|


  Q    H.              W                 
--------------------|-------------------|
--------------------|-------------------|
-------4------------|-------------------|
--L----4------------|--3----------------|
--L----2------------|--3----------------|
--L-----------------|--1----------------|


  W                    W                 
-------------------|--11----------------|
-------------------|--13----------------|
-------------------|--12----------------|
--2----------------|--10----------------|
--2----------------|--------------------|
--0----------------|--------------------|


  H.            Q        Q    Q.     Q.      
--7-------------8----|---L----5------3------|
--9------------10----|---L----7------5------|
--8-------------9----|---L----6------4------|
--6-------------7----|---L----4------2------|
---------------------|----------------------|
---------------------|----------------------|


  H         H            Q.     H        E   
--L--------11--------|---L------7--------L--|
--L--------13--------|---L------9--------L--|
--L--------12--------|---L------8--------L--|
--L--------10--------|---L------6--------L--|
---------------------|----------------------|
---------------------|----------------------|


  Q    H        Q       E  Q.     H         
--L------------------|---------------------|
--L-------------3----|--L--3---------------|
--L----2--------2----|--L--2---------------|
--L----2--------0----|--L--0------2--------|
-------0-------------|------------2--------|
---------------------|------------0--------|


  Q        W                 
-------|--11----------------|
-------|--13----------------|
-------|--12----------------|
--L----|--10----------------|
--L----|--------------------|
--L----|--------------------|


  H.            Q        Q    Q.     Q.      
--7-------------8----|---L----5------3------|
--9------------10----|---L----7------5------|
--8-------------9----|---L----6------4------|
--6-------------7----|---L----4------2------|
---------------------|----------------------|
---------------------|----------------------|


  H         H            Q.     H        E   
--L--------11--------|---L------7--------L--|
--L--------13--------|---L------9--------L--|
--L--------12--------|---L------8--------L--|
--L--------10--------|---L------6--------L--|
---------------------|----------------------|
---------------------|----------------------|


  Q    H        Q       E  Q.     H         
--L------------------|---------------------|
--L-------------3----|--L--3---------------|
--L----2--------2----|--L--2---------------|
--L----2--------0----|--L--0------2--------|
-------0-------------|------------2--------|
---------------------|------------0--------|


  Q        W                 
-------|--11----------------|
-------|--13----------------|
-------|--12----------------|
--L----|--10----------------|
--L----|--------------------|
--L----|--------------------|


  H.            Q        Q    Q.     Q.      
--7-------------8----|---L----5------3------|
--9------------10----|---L----7------5------|
--8-------------9----|---L----6------4------|
--6-------------7----|---L----4------2------|
---------------------|----------------------|
---------------------|----------------------|


  H         H            Q.     H        E   
--L--------11--------|---L------7--------L--|
--L--------13--------|---L------9--------L--|
--L--------12--------|---L------8--------L--|
--L--------10--------|---L------6--------L--|
---------------------|----------------------|
---------------------|----------------------|


  Q    H        Q       E  Q.     H         
--L------------------|---------------------|
--L-------------3----|--L--3---------------|
--L----2--------2----|--L--2---------------|
--L----2--------0----|--L--0------2--------|
-------0-------------|------------2--------|
---------------------|------------0--------|


  Q        W                 
-------|--11----------------|
-------|--13----------------|
-------|--12----------------|
--L----|--10----------------|
--L----|--------------------|
--L----|--------------------|


  H.            Q        Q    Q.     Q.      
--7-------------8----|---L----5------3------|
--9------------10----|---L----7------5------|
--8-------------9----|---L----6------4------|
--6-------------7----|---L----4------2------|
---------------------|----------------------|
---------------------|----------------------|


  H         H            Q.     H        E   
--L--------11--------|---L------7--------L--|
--L--------13--------|---L------9--------L--|
--L--------12--------|---L------8--------L--|
--L--------10--------|---L------6--------L--|
---------------------|----------------------|
---------------------|----------------------|


  W                   H        H         
-------------------|--------------------|
-------------------|--------------------|
-------------------|--------------------|
--5----------------|--L--------4--------|
--3----------------|--L--------2--------|
-------------------|--------------------|


  W                   Q    H.            
-------------------|--------------------|
-------------------|--------------------|
-------------------|--------------------|
--5----------------|--L----4------------|
--3----------------|--L----2------------|
-------------------|--------------------|


  W                   Q    H.            
-------------------|--------------------|
-------------------|--------------------|
-------------------|--------------------|
--5----------------|--L----4------------|
--3----------------|--L----2------------|
-------------------|--------------------|


  H.           Q       W                 
--------------------|-------------------|
--------------------|-------------------|
--------------------|-------------------|
--5------------6----|--L----------------|
--3------------4----|--L----------------|
--------------------|-------------------|


  W                   H        H         
-------------------|--------------------|
-------------------|--------------------|
-------------------|--------------------|
--5----------------|--L--------4--------|
--3----------------|--L--------2--------|
-------------------|--------------------|


  W                   Q    H.            
-------------------|--------------------|
-------------------|--------------------|
-------------------|--------------------|
--5----------------|--L----4------------|
--3----------------|--L----2------------|
-------------------|--------------------|


  W                   Q    H.            
-------------------|--------------------|
-------------------|--------------------|
-------------------|--------------------|
--5----------------|--L----4------------|
--3----------------|--L----2------------|
-------------------|--------------------|


  H.           Q       W                 
--------------------|-------------------|
--------------------|-------------------|
--------------------|-------------------|
--5------------6----|--L----------------|
--3------------4----|--L----------------|
--------------------|-------------------|


  W                   H        H         
-------------------|--------------------|
-------------------|--------------------|
-------------------|--------------------|
--5----------------|--L--------4--------|
--3----------------|--L--------2--------|
-------------------|--------------------|


  W                   Q    H.            
-------------------|--------------------|
-------------------|--------------------|
-------------------|--------------------|
--5----------------|--L----4------------|
--3----------------|--L----2------------|
-------------------|--------------------|


  W                   Q    H.            
-------------------|--------------------|
-------------------|--------------------|
-------------------|--------------------|
--5----------------|--L----4------------|
--3----------------|--L----2------------|
-------------------|--------------------|


  H.           Q       W                 
--------------------|-------------------|
--------------------|-------------------|
--------------------|-------------------|
--5------------6----|--L----------------|
--3------------4----|--L----------------|
--------------------|-------------------|


  W                   H        H         
-------------------|--------------------|
-------------------|--------------------|
-------------------|--------------------|
--5----------------|--L--------4--------|
--3----------------|--L--------2--------|
-------------------|--------------------|


  W                   Q    H.            
-------------------|--------------------|
-------------------|--------------------|
-------------------|--------------------|
--5----------------|--L----4------------|
--3----------------|--L----2------------|
-------------------|--------------------|


  W                   Q    H.            
-------------------|--------------------|
-------------------|--------------------|
-------------------|--------------------|
--5----------------|--L----4------------|
--3----------------|--L----2------------|
-------------------|--------------------|


  H.           Q       W                 
--------------------|-------------------|
--------------------|-------------------|
--------------------|-------------------|
--5------------6----|--L----------------|
--3------------4----|--L----------------|
--------------------|-------------------|


  W                   Q.      E    E    Q.       
-------------------|---------(4)-------(0)------|
-------------------|--------------(5)--(1)------|
-------------------|-------------------(2)------|
--5----------------|--4----------------(2)------|
--3----------------|--2----------------(0)------|
-------------------|----------------------------|


  W                  
--L----------------||
--L----------------||
--L----------------||
--L----------------||
--L----------------||
-------------------||




Duration Legend
---------------
W - whole
H - half
Q - quarter
E - 8th
S - 16th
T - 32nd
X - 64th
. - note dotted
|-n-|  - n-tuplets


Tablature Legend
----------------
L - tied note
x - dead note
g - grace note
(n) - ghost note
> - accentuded note
NH - natural harmonic
AH - artificial harmonic
TH - tapped harmonic
SH - semi harmonic
PH - pitch harmonic
h - hammer on
p - pull off
b - bend
br - bendRelease
pb - preBend
pbr - preBendRelease
brb - bendReleaseBend
\n/ - tremolo bar dip
\n - tremolo bar dive
-/n - tremolo bar Release up
/n\ - tremolo bar inverted dip
/n - tremolo bar return
-\n - tremolo bar Release down
S - shift slide
s - legato slide
/ -  slide into from below or out of upwards
\ -  slide into from above or out of downwards
~ - vibrato
W - wide vibrato
tr - trill
TP - tremolo picking
T - tapping
S - slap
P - pop
< - fade in
^ - brush up
v - brush down

            
            
Suggest correction
Creating personal tab
Creating personal tab
You can edit any tab online and save it as your Personal.

You can edit, replace or remove any tab part or add personal notes – all changes will be seen only by you.

Personal tabs can be accessed anytime from any device, even offline.
Learn more »
Give kudos to tab author, rate the tab!
1 2 3 4 5
comments
print report bad tab
guest
You may want to rate the tab now too:
select rating
Wanna post a correction for this tab? Suggest correction