Oops, an error
Loading. Please wait.

Completion In Science Of Agony Part 1 - 2 tab

by Mayhem
1,209 views 1 this week
no commentswrite comment
1 2 3 4 5
2 more votes to show rating
add to favorites
×
Save as Personal and add changes to this tab that will be seen only by you. Learn more ›
×
You can save this tab as Personal to edit and correct it or add notes. All changes will be seen only by you. Learn more »
launch autoscroll
font size
0
reset
how to read this tab
guitar tuner
edit
Autoscroll
slow
fast
+/-
esc
set tempo
stop
Author
Tuning: Standar.

RIFF 1 INTRO x2

|-2------2------1------1-------1-|-2------2------3------3---|
|-2--------2----1--------1---1---|-2--------2----4----4---4-|
|-2----------2--1----------1-----|-2----------2--5----------|
|-4----4--------3----3-----------|-4----4--------5----------|
|-4-------------3----------------|-4-------------3----------|
|-2-------------1----------------|-2-------------3----------|



 

|---------------|
|-17b^^^--------|
|-18b^^^--------|
|---------------|
|---------------|
|---------------| x1



 RIFF 2  x2

|---------------1-------------------------|
|---------------1-------------------------|
|---------------1----------------5--5/6\5-|
|-4----4-7-4-3--------4----4-7-4-5--5/6\5-|
|-4----4-7-4-3--------4----4-7-4-3--3/4\3-|
|-2----2-5-2-1--------2----2-5-2----------|
       .                   .


|---------------1-------------------------|
|---------------1-------------------------|
|---------------1-----5---6----11--10-----|
|-4----4-7-4-3--------5---6----11--10-----|
|-4----4-7-4-3--------3---4-----9---8-----|
|-2----2-5-2-1----------------------------|
       .



 RIFF 3 x2

|--------------------------------------------|
|--------------------------------------------|
|--------------------------------------------|
|--------------------------------------------|
|------4--3^^^---------3--4^^--3^^^----------|
|-2^---------------------------------------1-|



|--------------------------------------------|
|--------------------------------------------|
|--------------------------------------------|
|-----------------------------/4^^--3^^^-----|
|--------------------------------------------|
|-2^---2h3p2--1^^^---------------------------|



|--------------------------------------------|
|--------------------------------------------|
|--------------------------------------------|
|--------------------------------------------|
|------4--3^^^---------3--4^^--3^^^----------|
|-2^---------------------------------------1-|



|--------------------------------------------|
|--------------------------------------------|
|-------------------------5----6-------------|
|-------------------------3----4-------------|
|-------------------------------------3^-----|
|-2^---2h3p2--1^^^-------------------------1-|



 

 RIFF 2  x2

 LEAD 1 x2
                                   
|----------------1-------------------|----------|
|-17b^^^----7--------1---------------|-5--------|
|-18b^^^---------------1-------------|----------|
|------------------------3-----------|----------|
|------------------------------------|----------|
|------------------------------------|----------|


                           
|------1---------|----------------------|
|-7--------1-----|------5---7---5-------|
|------------1---|-5--6--6--6-----------|
|--------------3-|-5--6-----4-----------|
|----------------|-3--4-----------------|
|----------------|----------------------|




 RIFF  x2 UNDER LEAD


 

|-----------------------------------|
|-----------------------------------|
|-----------------------------------|
|------6--5--------5--6-------------|
|-4----4--3--------3--4----4\3--4\3-|
|-2------------------------2\1--2\1-|
                              x    x



 LEAD 2 x2

            
|----------------1---------13--------|----------|
|-----------7--------1-------13------|-5--------|
|----------------------1-------13----|----------|
|------------------------3-------15\-|----------|
|------------------------------------|----------|
|------------------------------------|----------|


  
|------1---------|----------------------|
|-7--------1-----|------5---7---5-------|
|------------1---|-5--6--6--6-----------|
|--------------3-|-5--6-----4-----------|
|----------------|-3--4-----------------|
|----------------|----------------------|




 RIFF 2A x2 UNDER LEAD 2

|-----------------------------------------|
|-----------------------------------------|
|------------5--------6-----5-----6\\-----|
|-4----4-7-4-5--------6-----5-----6\\-----|
|-4----4-7-4-3--------4-----3-----4\\-----|
|-2----2-5-2------------------------------|
       .


|---------------1-------------------------|
|---------------1-------------------------|
|---------------1-----5---6----11--10-----|
|-4----4-7-4-3--------5---6----11--10-----|
|-4----4-7-4-3--------3---4-----9---8-----|
|-2----2-5-2-1----------------------------|
       .


 RIFF 3A VERSE x1

|--------------------------------------------|
|--------------------------------------------|
|--------------------------------------------|
|--------------------------------------------|
|------4--3^^^---------3--4^^--3^^^----------|
|-2^---------------------------------------1-|



|GUITAR 1
|--------------------------------------------|
|--------------------------------------------|
|--------------------------------------------|
|-----------------------------/4^^--3^^^-----|
|--------------------------------------------|
|-2^---2h3p2--1^^^---------------------------|
|
|
|GUITAR 2
|----------------13--------------------------|
|------------------13------------------------|
|--------------------13----------------------|
|----------------------15\-------------------|
|--------------------------------------------|
|--------------------------------------------|



|--------------------------------------------|
|--------------------------------------------|
|--------------------------------------------|
|--------------------------------------------|
|------4--3^^^---------3--4^^--3^^^----------|
|-2^---------------------------------------1-|



|GUITAR 1
|--------------------------------------------|
|--------------------------------------------|
|-------------------------5----6-------------|
|-------------------------3----4-------------|
|-------------------------------------3^-----|
|-2^---2h3p2--1^^^-------------------------1-|
|
|
|GUITAR 2
|----------------------13--------------------|
|--------------------13----12/23\15/22\17/24-|
|------------------13------12/23\15/22\17/24-|
|----------------15--------------------------|
|--------------------------------------------|
|--------------------------------------------|



|GUITAR 1
|--------------------------------------------|
|--------------------------------------------|
|--------------------------------------------|
|--------------------------------------------|
|------4--3^^^---------3--4^^--3^^^----------|
|-2^---------------------------------------1-|
|
|
|GUITAR 2
|--------------------------------------------|
|-24\\\5\\-----------------------------------|
|-24\\\5\\-----------------------------------|
|--------------------------------------------|
|--------------------------------------------|
|--------------------------------------------|



|--------------------------------------------|
|--------------------------------------------|
|--------------------------------------------|
|-----------------------------/4^^--3^^^-----|
|--------------------------------------------|
|-2^---2h3p2--1^^^---------------------------|



|--------------------------------------------|
|--------------------------------------------|
|--------------------------------------------|
|--------------------------------------------|
|------4--3^^^---------3--4^^--3^^^----------|
|-2^---------------------------------------1-|



|--------------------------------------------|
|--------------------------------------------|
|-------------------------5----6-------------|
|-------------------------3----4-------------|
|-----------------------------------4\3--4\3-|
|-2^---2h3p2--1^^^------------------2\1--2\1-|
                                       x    x



 RIFF 4 CHORUS x1

|--------------3------3--------------4-----------3-----------8-|
|--------------4--------4------------5------5----4------4----9-|
|--------------5----5-----5----------6----6---6--5----5---5-10-|
|-4------------5---------------5-6-5-6-----------5----------10-|
|-4------4-4-4-3---------------3-4-3-4-----------3-----------8-|
|-2------2-2-2-3---------------------4-----------3-----------8-|
         . . .                 . . .


|----------------7---------------------------------------------|
|-----------9----8---------------------------------------------|
|----10--10--10--9-----------------------\6----6----6----------|
|------10--------9-----------------------\6----6----6----6-6-6-|
|----------------7-----------------------\4----4----4----4-4-4-|
|----------------7---------------------------------------------|
                                                         . . .


|-3--------3---2------2--------------3-----------2-------------|
|-4------4---4-2--------2------------3------3----2------2------|
|-5----5-------2----------2----------3------3----2------2------|
|-5------------4----4----------------5----5---5--4----4---4----|
|-3------------4---------------4-5-4-5-----------4-------------|
|-3------------2---------------2-3-2-3-----------2----------/7-|
                               . . .


|--------------------------------------------------------------|
|--------------------------------------------------------------|
|-----------7--------------------------------------------------|
|-----9---9---9--8-----------------------\5----5----5----------|
|-------9--------8-----------------------\5----5----5----5-5-5-|
|----------------6-----------------------\3----3----3----3-3-3-|
                                                         . . .


|--------------3------3--------------4-----------3-----------8-|
|--------------4--------4------------5------5----4------4----9-|
|--------------5----5-----5----------6----6---6--5----5---5-10-|
|-4------------5---------------5-6-5-6-----------5----------10-|
|-4------4-4-4-3---------------3-4-3-4-----------3-----------8-|
|-2------2-2-2-3---------------------4-----------3-----------8-|
         . . .                 . . .


|----------------7---------------------------------------------|
|-----------9----8---------------------------------------------|
|----10--10--10--9-----------------------\6----6----6----------|
|------10--------9-----------------------\6----6----6----6-6-6-|
|----------------7-----------------------\4----4----4----4-4-4-|
|----------------7---------------------------------------------|
                                                         . . .



|-3--------3---2------2--------------3-----------2-------------|
|-4------4---4-2--------2------------3------3----2------2------|
|-5----5-------2----------2----------3------3----2------2------|
|-5------------4----4----------------5----5---5--4----4---4----|
|-3------------4---------------4-5-4-5-----------4-------------|
|-3------------2---------------2-3-2-3-----------2----------/7-|
                               . . .


|--------------------------------------------------------------|
|--------------------------------------------------------------|
|-----------7--------------------------------------------------|
|-----9---9---9--8-----------------------\5----5---------------|
|-------9--------8-----------------------\5----5---------------|
|----------------6-----------------------\3----3---------------|
                                                   x



 


 SOLO mutherfuckers.
  
|----------------------------------------------|
|----------------------------------------------|
|--------5b^^^----5-6-5-6b^^^--6fb^^^r-5b^^----|
|-4b^^^----------------------------------------|
|----------------------------------------------|
|----------------------------------------------|

                                            
|------------------------------------------------------------|
|----------9----9-8h9p8--------------------------------------|
|-/10b^^^----10---------9b^^^----9\\\6b^^^--6fb^^^^^^r-------|
|------------------------------------------------------6b^^^-|
|------------------------------------------------------------|
|------------------------------------------------------------|

  
|----------------------------------------------|
|----------------------------------------------|
|-5b^^^----------------------------------------|
|--------4b^^^----4-5-4-5b^^^/7b^-5h7p5-4b^^^--|
|----------------------------------------------|
|----------------------------------------------|


|--------------------------------13h15p13-------------|
|------------------------------13---------15p14-------|
|----------------------------13-----------------15p13-|
|-/9b^^^/11b^^^/12b-12b^^--15-------------------------|
|-----------------------------------------------------|
|-----------------------------------------------------|


|----------------------------------------------------|
|-------13-------------------------------------------|
|-13h15----15h13-12----------------------------------|
|-------------------14-12-11-------------------------|
|----------------------------13-11-10----------------|
|-------------------------------------12-10-9\\\\----|




well thats it, maybe to hard for you? not my prob. 

            
            
Suggest correction
Creating personal tab
Creating personal tab
You can edit any tab online and save it as your Personal.

You can edit, replace or remove any tab part or add personal notes – all changes will be seen only by you.

Personal tabs can be accessed anytime from any device, even offline.
Learn more »
Give kudos to tab author, rate the tab!
1 2 3 4 5
comments
print report bad tab
guest
You may want to rate the tab now too:
select rating
Wanna post a correction for this tab? Suggest correction