Oops, an error
Loading. Please wait.

Pagan Fears bass

version 1
version 1

Whole song

Interactive

by Mayhem
1,227 views 9 this week
no commentswrite comment
1 2 3 4 5
2 more votes to show rating
add to favorites
×
Save as Personal and add changes to this tab that will be seen only by you. Learn more ›
×
You can save this tab as Personal to edit and correct it or add notes. All changes will be seen only by you. Learn more »
launch autoscroll
font size
0
reset
guitar tuner
edit
Autoscroll
slow
fast
+/-
esc
set tempo
stop
Author
Difficulty
Tabbed by: 6METAL6BASSIST6
E-mail: petergriffinav@gmail.com

Tuning: 1/4 step down

Re-tabbed.

Use distortion.

G|----------------------------------------------------------------|.
D|----------------------------------------------------------------|.
A|------------8-------7---8-------------------8-------7---8-------|.
E|0-------------------------------0-------------------------------|.
                                                                   . x4
G|----------------------------------------------------------------|.
D|----------------------------------------------------------------|.
A|------------8-------7---8---------------------------------------|.
E|0-------------------------------1---1---1---2-------1---2-------|.

0:25

G|----------------------------------------------------------------------------------------|
D|----------------------------------------------------------------------------------------| x2
A|----------------------------------------------------------------------------------------|
E|0-----------------------2-------1-------0-----------------------2-----------1-----------|

G|----------------------------------------------------------------------------------------|
D|----------------------------------------------------------------------------------------| x2
A|------------3---------------------------------------3-----------------------------------|
E|0-----------------------2-------1-------0-----------------------2-----------1-----------|

0:44

G|----------------------------------------------------------------|.
D|----------------------------------------------------------------|.
A|------------8-------7---8-------------------8-------7---8-------|.
E|0-------------------------------0-------------------------------|.
                                                                   . x4
G|----------------------------------------------------------------|.
D|----------------------------------------------------------------|.
A|------------8-------7---8---------------------------------------|.
E|0-------------------------------1---1---1---2-------1---2-------|.

G|----------------------------------------------------------------|
D|----------------------------------------------------------------|
A|----------------------------------------------------------------|
E|0---------------------------------------------------------------|

G|----------------------------------------------------------------|
D|----------------------------------------------------------------|
A|----------------------------------------------------------------|
E|----------------------------------------------------------------|

G|----------------------------------------------------------------|
D|----------------------------------------------------------------|
A|----------------------------------------------------------------|
E|----------------------------------------------------------------|

G|----------------------------------------------------------------|
D|----------------------------------------------------------------|
A|----------------------------------------------------------------|
E|----------------------------------------------------------------|

1:21

G|----------------------------------------------------------------|.
D|----------------------------------------------------------------|.
A|----------------------------------------------------------------|.
E|0---0---0-------1---0---0-------1---1---1---1---1---1---1-------|.
                                                                   . x8
G|----------------------------------------------------------------|.
D|----------------------------------------------------------------|.
A|----------------------------------------------------------------|.
E|0---0---0-------1---0---0-------2---2---2-------1---1---1-------|.

G|----------------------------------------------------------------|.
D|----------------------------------------------------------------|.
A|--------------------------------4---4---4---4---4---4---4-------|.
E|0---0---0-------1---0---0---------------------------------------|.
                                                                    x4
G|----------------------------------------------------------------|.
D|----------------------------------------------------------------|.
A|--------------------------------4---4---4-------3---3---3-------|.
E|0---0---0-------1---0---0---------------------------------------|.

2:36

G|----------------------------------------------------------------|.
D|----------------------------------------------------------------|.
A|----------------------------------------------------------------|.
E|0---0---0-------1---0---0-------1---1---1---1---1---1---1-------|.
                                                                   . x4
G|----------------------------------------------------------------|.
D|----------------------------------------------------------------|.
A|----------------------------------------------------------------|.
E|0---0---0-------1---0---0-------2---2---2-------1---1---1-------|.

G|----------------------------------------------------------------|.
D|----------------------------------------------------------------|.
A|--------------------------------4---4---4---4---4---4---4-------|.
E|0---0---0-------1---0---0---------------------------------------|.
                                                                    x2
G|----------------------------------------------------------------|.
D|----------------------------------------------------------------|.
A|--------------------------------4---4---4-------3---3---3-------|.
E|0---0---0-------1---0---0---------------------------------------|.

G|----------------------------------------------------------------|.
D|----------------------------------------------------------------|.
A|----------------------------------------------------------------|.
E|0---0---0-------1---0---0-------1---1---1---1---1---1---1-------|.
                                                                   . x2
G|----------------------------------------------------------------|.
D|----------------------------------------------------------------|.
A|----------------------------------------------------------------|.
E|0---0---0-------1---0---0-------2---2---2-------1---1---1-------|.

3:29

G|------------------------------------------------------------------------------------------------|
D|------------------------------------------------------------------------------------------------|
A|------------------------------------------------------------------------------------------------|
E|0---0---0---0---0---0---0---0---0---0-----------2---2---2---2---2---2---2---2---2---2-----------|

G|------------------------------------------------------------------------------------------------|
D|------------------------------------------------------------------------------------------------|
A|------------------------------------------------------------------------------------------------|
E|0---0---0---0---0---0---0---0---0---0-----------3---3---3---3---3---3---3---3---3---3-----------|

G|------------------------------------------------------------------------------------------------|
D|------------------------------------------------------------------------------------------------|
A|------------------------------------------------------------------------------------------------|
E|0---0---0---0---0---0---0---0---0---0-----------2---2---2---2---2---2---2---2---2---2-----------|

G|------------------------------------------------------------------------------------------------|
D|------------------------------------------------------------------------------------------------|
A|------------------------------------------------------------------------------------------------|
E|0---0---0---0---0---0---0---0---0---0-----------4---4---4---4---4---4---4---4---4---4-----------|

3:48

G|----------------------------------------------------------------|.
D|--------------------------------5-------------------------------|.
A|----------------------------------------------------------------|.
E|0---------------------------------------------------------------|.
                                                                   . x8
G|----------------6-----------------------------------------------|.
D|4-------------------------------4-------------------------------|.
A|------------------------------------------------4---------------|.
E|----------------------------------------------------------------|.

4:38

G|----------------------------------------------------------------|
D|--------------------------------5-------------------------------|
A|----------------------------------------------------------------|
E|0---------------------------------------------------------------|

G|----------------6---------------11--------------6---------------|
D|4---------------------------------------------------------------|
A|----------------------------------------------------------------|
E|----------------------------------------------------------------|

G|----------------------------------------------------------------|
D|--------------------------------5-------------------------------|
A|----------------------------------------------------------------|
E|0---------------------------------------------------------------|

G|----------------6-----------------------------------------------|
D|4-------------------------------4-------------------------------|
A|------------------------------------------------4---------------|
E|----------------------------------------------------------------|

G|----------------------------------------------------------------|
D|--------------------------------5-------------------------------|
A|----------------------------------------------------------------|
E|0---------------------------------------------------------------|

G|----------------6---------------11--------------6---------------|
D|4---------------------------------------------------------------|
A|----------------------------------------------------------------|
E|----------------------------------------------------------------|

G|----------------------------------------------------------------|
D|--------------------------------5-------------------------------|
A|----------------------------------------------------------------|
E|0---------------------------------------------------------------|

G|----------------7-----------------------------------------------|
D|5-------------------------------5-------------------------------|
A|------------------------------------------------5---------------|
E|----------------------------------------------------------------|

G|----------------------------------------------------------------|
D|----------------------------------------------------------------|
A|----------------------------------------------------------------|
E|0---------------------------------------------------------------|

G|----------------------------------------------------------------|
D|----------------------------------------------------------------|
A|----------------------------------------------------------------|
E|----------------------------------------------------------------|

5:08

G|----------------------------------------------------------------|.
D|----------------------------------------------------------------|.
A|----------------------------------------------------------------|.
E|0---0---0-------1---0---0-------1---1---1---1---1---1---1-------|.
                                                                   . x7
G|----------------------------------------------------------------|.
D|----------------------------------------------------------------|.
A|----------------------------------------------------------------|.
E|0---0---0-------1---0---0-------2---2---2-------1---1---1-------|.

G|----------------------------------------------------------------|.
D|----------------------------------------------------------------|.
A|--------------------------------4---4---4---4---4---4---4-------|.
E|0---0---0-------1---0---0---------------------------------------|.
                                                                    x4
G|----------------------------------------------------------------|.
D|----------------------------------------------------------------|.
A|--------------------------------4---4---4-------3---3---3-------|.
E|0---0---0-------1---0---0---------------------------------------|.

            
            
Suggest correction
Creating personal tab
Creating personal tab
You can edit any tab online and save it as your Personal.

You can edit, replace or remove any tab part or add personal notes – all changes will be seen only by you.

Personal tabs can be accessed anytime from any device, even offline.
Learn more »
Give kudos to tab author, rate the tab!
1 2 3 4 5
comments
print report bad tab
guest
You may want to rate the tab now too:
select rating
Wanna post a correction for this tab? Suggest correction