Oops, an error
Loading. Please wait.

The Old Iron Hills tab

4,373 views 1 this week
no commentswrite comment
1 2 3 4 5
x 3
add to favorites
×
Save as Personal and add changes to this tab that will be seen only by you. Learn more ›
×
You can save this tab as Personal to edit and correct it or add notes. All changes will be seen only by you. Learn more »
launch autoscroll
font size
0
reset
how to read this tab
guitar tuner
edit
Autoscroll
slow
fast
+/-
esc
set tempo
stop
The Old Iron Hills 
Maylene & the Sons of Disaster
III
Tuning-Drop D

I think this should be pretty close. Please comment if you like it or if there are mistakes.

Intro X2
e|--------------------------------------------------------------------------------------------|
B|--------------------------------------------------------------------------------------------|
G|--------------------------------------------------------------------------------------------|
D|-—-----------------3h5-3^--------------------3h5--3^------------------3h5-3^-77777777-5555-3|
A|-—------------5----3h5-3^---------------5----3h5-----------------5----3h5-3^-77777777-5555-3|
D|-00-000-0h5h6--6p5-3h5-3^--00-000-0h5h6--6p5-3h5-----00-000-0h5h6-6p5-3h5-3^-77777777-5555-3|


Verse X2

Lead
e|-------------------------------------------------------------------------------------------|
B|-------------------------------------------------------------------------------------------|
G|-------------------------------------------------------------------------------------------|
D|-0-5p3p0------------------------5p3p0------------------------5p3p0-------------------------|
A|-0------5p3p0------------------------5p3p0------------------------5p3p0--------------------|
D|-0------------5p3p0-0000-3^-0-0-----------5p3p0--0000-5^-0-0-----------5p3p0--0000-3^-0----|

Rhythm
e|-------------------------------------------------------------------------------------------|
B|-------------------------------------------------------------------------------------------|
G|-------------------------------------------------------------------------------------------|
D|-0------------------0000-------------------------0000-----------------------0000-----------|
A|-0------------------0000-------------------------0000-----------------------0000-----------|
D|-0------------------0000-3^-0-0------------------0000-5^-0-0----------------0000-3^-0------|

Both parts
e|--------------------|
B|--------------------|
G|--------------------|
D|-77777777-5555-3----|
A|-77777777-5555-3----|
D|-77777777-5555-3----|


Chorus X2

Lead (not 100%)
e|-------------------------------------------------------------------|
B|----------------------------------------------8b10-6^---8b10-6^----|
G|----5-7----5-7~-----5-7----5-7~----5-7----5-7---------7~--------7~-|
D|-5-7----5-7-----5-7-----5-7-----5-7----5-7-------------------------|
A|-------------------------------------------------------------------|
D|-------------------------------------------------------------------|

Rhythm
e|-------------------------------------------------------------------------|
B|-------------------------------------------------------------------------|
G|-------------------------------------------------------------------------|
D|-7777777777777777-5555555555555555-5555555555555555-5-3^-0---------------|
A|-5555555555555555-3333333333333333-5555555555555555-5-3^-0--------3------|
D|-----------------------------------5555555555555555-5-3^-0-----3-5-5-3-0-|

Bridge X4
e|--------------------------|
B|--------------------------|
G|--------------------------|
D|--------------------------|
A|--------5-------3---------|
D|-0-0h5h6-6p5-3-5-5-0-3^-0-|


Breakdown
e|-------------------------------------------------------------------------------------------|
B|-------------------------------------------------------------------------------------------|
G|-------------------------------------------------------------------------------------------|
D|-0-0-3---------------6-5-3---0-0-3---------------5-3^--0-0-3---------------5-3^------------|
A|-0-0--5-3-0-3h5-5--3-6-5-3---0-0--5-3-0-3h5-5--3-5-3^--0-0--5-3-0-3h5-5--3-5-3^------3-----|
D|-0-0-----------------6-5-3---0-0-----------------5-3^--0-0-----------------5-3^-0-3-5-5-3-0|

e|--------------|
B|--------------|
G|--------------|
D|-----3--------|
A|--3-5-5-3-5---|
D|-5------------|

Repeat Chorus

End Verse
e|----------------------------------------------------------------------------------------|
B|----------------------------------------------------------------------------------------|
G|----------------------------------------------------------------------------------------|
D|-0-5p3p0------------0000-----5p3p0------------0000----5p3p0-----------------------0-----|
A|-0------5p3p0-------0000----------5p3p0-------0000---------5p3p0--------5-3-3-----0-----|
D|-0------------5p3p0-0000-3^------------5p3p0--0000-5^-----------5p3p0-0----5-5-3^-0-----|



Legend-

^ - Slight bend
H – Hammer-on
P – Pull-off
~ - Vibrato

            
            
Suggest correction
Creating personal tab
Creating personal tab
You can edit any tab online and save it as your Personal.

You can edit, replace or remove any tab part or add personal notes – all changes will be seen only by you.

Personal tabs can be accessed anytime from any device, even offline.
Learn more »
Give kudos to tab author, rate the tab!
1 2 3 4 5
comments
print report bad tab
guest
You may want to rate the tab now too:
select rating
Wanna post a correction for this tab? Suggest correction