Oops, an error
Loading. Please wait.

You Cant Touch This intro tab

version 1
version 1

Intro

Whole song

Interactive

14,350 views 12 this week
3 commentsread comments
1 2 3 4 5
x 10
add to favorites
×
Save as Personal and add changes to this tab that will be seen only by you. Learn more ›
×
You can save this tab as Personal to edit and correct it or add notes. All changes will be seen only by you. Learn more »
launch autoscroll
font size
0
reset
how to read this tab
guitar tuner
edit
Autoscroll
slow
fast
+/-
esc
set tempo
stop
CANT TOUCH THIS   MC Hammer  (Intro)

Tuning: standard (e B G D A E)

e|-----------------------|
B|-----------------------|
G|-----------------------|
D|-----------------------|
A|-5-3-3-2-----------2-0-|
E|------------0-3--------|

e|-----------------------|
B|-----------------------|
G|-----------------------|
D|-----------------------|
A|-5-3-3-2-----------2-0-|
E|------------0-3--------|



This is really easy 2 learn, great 4 beginers and fun aswell!  

If you want to play this so it's more rock 'n' roll style, here are tabs for it below:

e|-------------------------|
B|-------------------------|
G|-7-5-5-4-------------4-2-|
D|-7-5-5-4----2-5------4-2-|
A|-5-3-3-2----2-5------2-0-|
E|------------0-3----------|

e|-------------------------|
B|-------------------------|
G|-7-5-5-4-------------4-2-|
D|-7-5-5-4----2-5------4-2-|
A|-5-3-3-2----2-5------2-0-|
E|------------0-3----------|

Enjoy, u can print it if u want, or anything else.  Have fun!

            
            
Suggest correction
Creating personal tab
Creating personal tab
You can edit any tab online and save it as your Personal.

You can edit, replace or remove any tab part or add personal notes – all changes will be seen only by you.

Personal tabs can be accessed anytime from any device, even offline.
Learn more »
comments
print report bad tab
3 comments total.
0 reply
twisted121 10 May 15, 2006 04:26 PM

boooooooo

0 reply
Warlock2006 10 Nov 26, 2006 07:18 AM

lol

0 reply
TheAvengedBullt 10 Jun 19, 2010 01:07 AM

i think it should be more like this,

e|-------------------------|
B|-------------------------|
G|-7-5-5-2-------------4-2-|
D|-7-5-5-2----2-5------4-2-|
A|-5-3-3-0----2-5------2-0-|
E|------------0-3----------|

but i think it sounds better doesn't mean it's good :P

guest
Wanna post a correction for this tab? Suggest correction