Oops, an error
Loading. Please wait.

Hot Topic Is Not Punk Rock bass

version 1
version 1

Whole song

Interactive

by MC Lars
2,846 views 1 this week
2 commentsread comments
1 2 3 4 5
x 4
add to favorites
×
Save as Personal and add changes to this tab that will be seen only by you. Learn more ›
×
You can save this tab as Personal to edit and correct it or add notes. All changes will be seen only by you. Learn more »
launch autoscroll
font size
0
reset
guitar tuner
edit
Autoscroll
slow
fast
+/-
esc
set tempo
stop
Difficulty
Title: "Hot Topic Is Not Punk Rock"
Artist: MC Lars feat. The Matches
Album: The Graduate (Horris/Nettwerk, 2006)
Length: 2:15
Tabbed by: jeanine m
Tuning: standard (EADG)


Introduction:
"MC Lars...is more punk than you!"
G|--------------2----121----------------|
D|-444444444--04-4--2-------------------|
A|--------------------------------------|   x4
E|--------------------------------------|
(guitar enters on 3rd measure)


Verse:
G|--------------------------------------|
D|----------00002222--------------------|
A|--------------------------------------| x8
E|-22222222-----------------------------|


Chorus: (slower)
G|--------------------------------------|
D|--------------------------------------|
A|-------------------55555555-22222222--| x2
E|-22222222-55555555--------------------|


Pre-verse:
G|--------------------------------------|
D|-44444444-00002222--------------------|
A|--------------------------------------| x4
E|--------------------------------------|


Verse 2:
G|--------------------------------------|
D|----------00002222--------------------|
A|--------------------------------------| x7
E|-22222222-----------------------------|

G|----------x----------------------------|
D|----------x----------------------------|
A|----------x----------------------------|
E|-22222222-x----------------------------|


Chorus: (slower)
G|--------------------------------------|
D|--------------------------------------|
A|-------------------55555555-22222222--| x2
E|-22222222-55555555--------------------|


Bridge: (only bass and drums)
G|--------------------------------------|
D|-44444444-00002222--------------------|
A|--------------------------------------| x12
E|--------------------------------------|


Ending:
G|--------------2----121----------------|
D|-444444444--04-4--2-------------------|
A|--------------------------------------|   x2
E|--------------------------------------|

G|------2-4-6--9-11-14--13-11-9--6-4-2----------------------------|
D|-4444---------------------------------4-2---2-------------------|
A|------------------------------------------4---4-2-0-------------|
E|-----------------------------------------------------0-0-0-0-2--|

            
            
Suggest correction
Creating personal tab
Creating personal tab
You can edit any tab online and save it as your Personal.

You can edit, replace or remove any tab part or add personal notes – all changes will be seen only by you.

Personal tabs can be accessed anytime from any device, even offline.
Learn more »
comments
print report bad tab
2 comments total.
0 reply
uncle_timmay 30 Apr 29, 2006 03:22 AM

gr8 tab!

0 reply
Ginga91 31 Jun 04, 2006 07:21 AM

verse!
G|--------------------------------------|
D|-.4444444---474--676------------------|
A|-4--------45----7---------------------| x4
E|--------------------------------------|
the rest i thought was great

guest
Wanna post a correction for this tab? Suggest correction