Oops, an error
Loading. Please wait.

Air Guitar chords

version 1
version 1

Whole song

Interactive

16,253 views 15 this week
2 commentsread comments
1 2 3 4 5
x 7
add to favorites
×
Save as Personal and add changes to this tab that will be seen only by you. Learn more ›
×
You can save this tab as Personal to edit and correct it or add notes. All changes will be seen only by you. Learn more »
launch autoscroll
font size
0
reset
transpose
0
reset
simplify chords
display chords
guitar tuner
edit
Autoscroll
slow
fast
+/-
esc
set tempo
stop
Author
Difficulty
Strumming
There is no strumming pattern for this song yet. and get +5 IQ
Intro: E x8

-12--12--9--7------------
-------------------------
------------------------- (throughout)
-------------------------
-------------------------
-------------------------


Verse:

E
I never was a cool kid
No one ever really gave a damn what I did
I liked to party but I never got invited
Alone again so me, myself and I
Tried karaoke but they told me I was only OK
I guess I never shoulda sang Beyonce
uh oh, uh oh, uh oh, oh no no
so I dropped the Mic

Bridge:
        B        A                                  B
Oh yeah all the people in the bar turned round and stared
       A                                 B
I was on my knees and whipping round my hair
      A
and I knew that I was winning

Chorus:

         E                                   
Close my eyes and see the crowd
B (one strum)/A
but my fingers don't make any sound
    E          A
my Air Guitar


-----------------------0-----
--10--9--10--9--10--9-----12-
-----------------------------
-----------------------------
-----------------------------
-----------------------------



E
I keep it with me night and day
B (one strum)/A                        C
You won't believe the way that I can play
    C#m/B       A/B
my Air Guitar, Air Guitar
E
like this


Bom chicka wah wah

Verse:

E
In my head I am a Rockstar and I probably date a Pop Star
a Pop Star and a model on the side
I know I'll never make it
but tonight I'm good enough to fake it
bend an imaginary string and break it,
replace it in the backstage of my mind

Bridge:

B              A                                  B
But I know my friends all think I'm living such a lie
        A                                   B
but the lie they think I'm living gets me high
          A
it's the gift that keeps on giving

Chorus:

         E                  
Close my eyes and see the crowd
B (one strum)/A
but my fingers don't make any sound
   E               A
my Air Guitar

-----------------------0-----
--10--9--10--9--10--9-----12-
-----------------------------
-----------------------------
-----------------------------
-----------------------------

      E
Jimmy Page and Brian May
B (one strum)/A                   C
Won't believe the way that I can play
    C#m/B       A/B
my Air Guitar, Air Guitar
E
like this

Middle 8:

---------------------------------
---------------------------------
--------------------------------- x2
---------------------------------
-7-7-7-7-7-7-7-7-7-7-7-7-7-7-7-7-
-7-7-7-7-7-7-7-7-8-8-8-8-8-8-8-8-

You think there's nothing there
it's simply made of air

(Muted power chords) 
C#       B         A#         F#/G#(one strum)
   you laugh but you're just scared
A               B           C
try it if you dare

E      A    
Air guitar, 
E       A
Air guitar

           E           
I take it with me everywhere
B (one strum)/A          C
yeah but you don't even know it's there
C#/B           A/B
my Air Guitar, Air Guitar
E
Close my eyes and see the crowd
B (one strum)/A
but my fingers don't make any sound
E               A
my Air Guitar
E
keep it with me night and day
B (one strum)/A                C
You won't believe the way that I can play
C#/B           A/B
my Air Guitar, Air Guitar
E
like this

Outro Riff:

--12----6----12---5-4-5-4----12---6---12---5-4-5-4-5-4-5-4-
-----------------------------------------------------------
-----------------------------------------------------------
-----------------------------------------------------------
-----------------------------------------------------------
-----------------------------------------------------------

            
            
Suggest correction
Creating personal tab
Creating personal tab
You can edit any tab online and save it as your Personal.

You can edit, replace or remove any tab part or add personal notes – all changes will be seen only by you.

Personal tabs can be accessed anytime from any device, even offline.
Learn more »
comments
print report bad tab
2 comments total.
+1 reply
Seinfeld17 10 Dec 13, 2014 10:33 AM

Lack of accuracy. The verse and the intro it's not only E. The bridge it's a little off too, and the lyrics are on the first verse are wrong.

0 reply
Heather_Ham 53 Jan 17, 2015 01:36 AM

in the first verse where the lyrics are "uh oh" it should be "or MJ"

guest
You may want to rate the tab now too:
select rating
Wanna post a correction for this tab? Suggest correction