Oops, an error
Loading. Please wait.

Sleeping With The Light On chords

1,140 views 6 this week
1 commentread comment
1 2 3 4 5
x 6
add to favorites
×
Save as Personal and add changes to this tab that will be seen only by you. Learn more ›
×
You can save this tab as Personal to edit and correct it or add notes. All changes will be seen only by you. Learn more »
launch autoscroll
font size
0
reset
transpose
0
reset
simplify chords
display chords
guitar tuner
edit
Autoscroll
slow
fast
+/-
esc
set tempo
stop
Strumming
There is no strumming pattern for this song yet. and get +5 IQ
Tunning: Standard (E A D G B e)

G     =[320033]
Cadd9 =[x32033] 
Em7   =[022033]
Dsus4 =[xx0233]
D     =[xx0232]
Bm    =[224432]
Em    =[022000]

    Capo 1st

Intro: G Cadd9 [x2]

Verse:
         G
Along she came 
        Cadd9
With her picture  
           G      
Put it in a frame
          Cadd9
So I won't miss her
        Em7
Got on a plane 
     Dsus4   D
From London, Heathrow
            Cadd9
It seems such a shame, yeah...


Chorus:
           G                   Bm
I feel her slipping through my fingers
          Cadd9
Now she's gone 
                      D
I'm sleeping with the light on
    G                      Bm
And sharks swim through my veins now 
          Cadd9
That she's gone
                      Cm
I'm sleeping with the light on


Verse:
            G
Heard she's engaged 
       Cadd9
But to her best friend
           G
No ones to blame 
             Cadd9
Here's where it all ends
              Em7
And I feel the pain 
          Dsus4    D
'Cause I'm without her
       Cadd9
I feel the pain


Chorus:
           G                   Bm
I feel her slipping through my fingers
          Cadd9
Now she's gone 
                      D
I'm sleeping with the light on
    G                      Bm
And sharks swim through my veins now 
          Cadd9
That she's gone
                      Cm
I'm sleeping with the light on


Bridge:
Em
   I see the sight 
Cadd9
 With a different light
G                              D Dsus4  D
 Words cannot describe the way I'm feeling
                 Em
'Cause I've been searching in my head
        Cadd9
For the words I thought she'd said
    G          D
For too long


Chorus: (One strum per chord)
           G                   Bm
I feel her slipping through my fingers
          Cadd9
Now she's gone 
                      D
I'm sleeping with the light on
    G                      Bm
And sharks swim through my veins now 
          Cadd9 (strumming increases)
That she's gone
                      Cm
I'm sleeping with the light on


Solo:


          G                  Bm                   Cadd9                 D
e|-9-9-9-8------------|-9-9-9-8-----------|-9-9-9-8-----------|-------------------|
B|----------9-8-9-----|----------9-8------|----------9-8-9----|-9-9-9-11-11-13-11-|
G|--------------------|-------------------|-------------------|-------------------|
D|--------------------|-------------------|-------------------|-------------------|
A|--------------------|-------------------|-------------------|-------------------|
E|--------------------|-------------------|-------------------|-------------------|

          G                  Bm                   Cadd9                 Cm
e|-9-9-9-8------------|-9-9-9-8-----------|-9-9-9-8-----------|----------------------------|
B|----------9-8-9-----|----------9-8------|----------9-8-9----|-11-13-11----11-13-11----11-|
G|--------------------|-------------------|-------------------|----------13---------13-----|
D|--------------------|-------------------|-------------------|----------------------------|
A|--------------------|-------------------|-------------------|----------------------------|
E|--------------------|-------------------|-------------------|----------------------------|


Chorus:
           G                   Bm
I feel her slipping through my fingers
          Cadd9
Now she's gone 
                      D
I'm sleeping with the light on
    G                      Bm
And sharks swim through my veins now 
          Cadd9
That she's gone
                      Cm       
I'm sleeping with the light on   


G (let it ring)

-----------

Enjoy!! :-) Hope you like it

            
            
Suggest correction
Creating personal tab
Creating personal tab
You can edit any tab online and save it as your Personal.

You can edit, replace or remove any tab part or add personal notes – all changes will be seen only by you.

Personal tabs can be accessed anytime from any device, even offline.
Learn more »
comments
print report bad tab
1 comment total.
0 reply
MiniMattMusic 177 Dec 17, 2015 10:02 AM

The last note of each chorus should be a Cm.

Otherwise, Perfect!!!

guest
You may want to rate the tab now too:
select rating
Wanna post a correction for this tab? Suggest correction