Oops, an error
Loading. Please wait.
We have an official 5 Colours In Her Hair tab made by UG professional guitarists. Check out the tab »
×

5 Colours In Her Hair chords

version 4
version 4

Whole song

Interactive

by McFly
1,449 views 9 this week
1 commentread comment
1 2 3 4 5
x 6
add to favorites
×
Save as Personal and add changes to this tab that will be seen only by you. Learn more ›
×
You can save this tab as Personal to edit and correct it or add notes. All changes will be seen only by you. Learn more »
launch autoscroll
font size
0
reset
transpose
0
reset
simplify chords
display chords
guitar tuner
edit
Autoscroll
slow
fast
+/-
esc
set tempo
stop
Author
About this tab version
More accurate version. The version 1 has a lot of errors. Was this info helpful? Yes No
Strumming
There is no strumming pattern for this song yet. and get +5 IQ
Tabbed by: JimBlenderBR



- Intro:

 G            C            G             C             G               C             D
|------------------------------------------------------------------------------------------------------|
|------------------------------------------------------------------------------------------------------|
|------------------------------------------------------------------------------------------------------|
|----------------------3-4-5-5-3-5-3---------------3-4-5-5-3-3h5-3-------------------------------------|
|---------1-2-3-1-3--5---------------5-4-3--1-3--5-----------------5-4-3--1-3--1-3-4-5555555555555555--|
|-3-1-3-3----------------------------------------------------------------------------------------------|


G        C 
Do do do do do do
G        C 
Do do do do do do 
G        C        D        G
Do do do do do do 



- Verse 1:

                             F              G     F  G
She's got a lip ring with 5 colours in her hair
                         F                    D
Not into fashion but I love the clothes she wears
G                         F             G                  C  D
Her tattoos always hidden by her under wear  but she don't care



- Chorus: 

G          Em               C          D
Everybody wants to know her na - ae - ae - ame
  G            Em            C         D
I had a house party and she ca - ae - ae - ame
C              D   Bm              Em
Everyone asked me, who the hell is she,
      C          D                   G
That weirdo with 5 colours in her hair



- Post-Chorus: G G D/F# G G D/F# G



- Verse 2:

                           F        G    F G
She's just a loner with a sexy attitude   
                                 F               D
I'd like to phone her cause she puts me in the mood
G                                 F                 G
The rumours spreading round that she cooks in the nude but she don't 
 C               D
Care, she don't care



- Chorus: 

G          Em               C         D
Everybody wants to know her na - ae - ae - ame
G                 Em                  C        D   
How does she cope with her new found fa - ae - ae - ame
C              D   Bm              Em
Everyone asked me, who the hell is she
     C              D               G   D/F#  Em
That weirdo with 5 colours in her hair



Bridge:

Em              Am                G               F
She was all I thought about, the girl I couldn't live without
     Cm               G        D                 C   D   G
But then she went insane, she couldn't take the fame
    D              C   D  C             D         Bm
She said I was to blame, she had had enough, and shaved 5 colours
 Em  D   C                 Cm             
off and now, She's just a weirdo with no name



- Instrumental:

 G            C            G             C             G               C             D
|------------------------------------------------------------------------------------------------------|
|------------------------------------------------------------------------------------------------------|
|------------------------------------------------------------------------------------------------------|
|----------------------3-4-5-5-3-5-3---------------3-4-5-5-3-3h5-3-------------------------------------|
|---------1-2-3-1-3--5---------------5-4-3--1-3--5-----------------5-4-3--1-3--1-3-4-5555555555555555--|
|-3-1-3-3----------------------------------------------------------------------------------------------|



- Chorus: 

G          Em               C          D
Everybody wants to know her na - ae - ae - ame
  G            Em            C         D
I had a house party and she ca - ae - ae - ame
C              D   Bm              Em
Everyone asked me, who the hell is she,
      C          D                   G
That weirdo with 5 colours in her hair



- Ending:

G           C 
Do do do do do do
G           C 
Do do do do do do 
G           C       G
Do do do do do do 


__________
Tabbed by: JimBlenderBR

            
            
Suggest correction
Creating personal tab
Creating personal tab
You can edit any tab online and save it as your Personal.

You can edit, replace or remove any tab part or add personal notes – all changes will be seen only by you.

Personal tabs can be accessed anytime from any device, even offline.
Learn more »
comments
print report bad tab
1 comment total.
+1 reply
delb0y1967 3,614 Sep 18, 2015 03:59 AM

Top stuff lol Gotta love this song :)

guest
You may want to rate the tab now too:
select rating
Wanna post a correction for this tab? Suggest correction