Oops, an error
Loading. Please wait.

Dont Stop Me Now bass

version 1
version 1

Whole song

by McFly
697 views 1 this week
no commentswrite comment
1 2 3 4 5
2 more votes to show rating
add to favorites
×
Save as Personal and add changes to this tab that will be seen only by you. Learn more ›
×
You can save this tab as Personal to edit and correct it or add notes. All changes will be seen only by you. Learn more »
launch autoscroll
font size
0
reset
guitar tuner
edit
Autoscroll
slow
fast
+/-
esc
set tempo
stop
Author
-----------------------------------------------------------------------------
                 Don't Stop Me Now - McFly
-----------------------------------------------------------------------------
Tabbed By: Fabio BlenderBR
 - Give your rating and help others users to find the best versions of the songs -

 - Intro:
(Tonight I'm gonna have myself a real good time...)
G|-------------------12/10--12/14--14/15--15\12----------------------------------------------|
D|-------------------------------------------------------------------------------------------|
A|------------------------------------------------------5-3--------5-3-5555-7777-88-1010-----|
E|----------------------------------------------------3-----3----3---------------------------|

 - Verse 1:
(I'm a shooting star leaping through the skies...)
G|------------------------------------------------------------------------|
D|-------------------------2--------------------------3333/15151512-8888--|
A|-----------5555------3335------------5555------3333---------------------|
E|-1111-5555------3333-------1111-5555------3333--------------------------|

(Two hundred degrees, That's why they call me Mister Fahrenheit...)
G|---------------------------------------------------|
D|---------------------------------------------------|
A|------55055------55055----------23-333-353---------|
E|-3335-------3335-------3333-345--------------------|

 - Chorus:
(Don't stop me now, I'm having such a good time...)
G|---------------------------------------------------|
D|---------------------------------------------------|
A|-------5555------33353-------5555------55575-------|
E|-1-3-5------3333-------1-3-5------3333-------------|

(Don't stop me now ('cause I'm having a good time)...)
G|--------------------------------------------------3-----|
D|-5555----------------5555------------------------3-3----|
A|------5555-3333-----------5555-3333------3333-111-------|
E|----------------3333----------------3333----------------|

 - Verse 2:
(I'm a rocket ship on my way to Mars...)
G|------------------------------------------------------------------------|
D|-------------------------2--------------------------3333/15151512-8888--|
A|-----------5555------3335------------5555------3333---------------------|
E|-1111-5555------3333-------1111-5555------3333--------------------------|

(Two hundred degrees, That's why they call me Mister Fahrenheit...)
G|---------------------------------------------------|
D|---------------------------------------------------|
A|------55055------55055----------23-----------------|
E|-3335-------3335-------3333-345--------------------|

 - Solo:
G|---------------------------5-----------------------5-----|
D|---------------------------------------------------------|
A|--------------5555------3333-----------5555------3333----|
E|-13\1111-5555------3333------1111-5555------3333---------|

 - Verse 3:
(Ooh I'm burning through the sky yeah!, Two hundred degrees...)
G|--------------------------------------------------------------------------------------|
D|--------------------------------------------------------------------------------------|
A|-8888/202020-191919-171717-151515-131313-------55055------55055----------23-333-353---|
E|------------------------------------------3335-------3335-------3333-345--------------|

 - Chorus:
(Don't stop me now, I'm having such a good time...)
G|---------------------------------------------------|
D|---------------------------------------------------|
A|-------5555------33353-------5555------55575-------|
E|-1-3-5------3333-------1-3-5------3333-------------|

(Don't stop me now, I'm having such a good time...)
G|---------------------------------------------|
D|-5555----------------5555--------------------|
A|------5555-3333-----------5555-3333----------|   2x
E|----------------3333----------------3333-----|

 - Final
G|--------------------|
D|---------8----------|
A|--3333--8-8---------|
E|-------6----6\1~----|

            
            
Suggest correction
Creating personal tab
Creating personal tab
You can edit any tab online and save it as your Personal.

You can edit, replace or remove any tab part or add personal notes – all changes will be seen only by you.

Personal tabs can be accessed anytime from any device, even offline.
Learn more »
Give kudos to tab author, rate the tab!
1 2 3 4 5
comments
print report bad tab
guest
You may want to rate the tab now too:
select rating
Wanna post a correction for this tab? Suggest correction